Oops, an error
Loading. Please wait.

Slain Tab

1,064 views 3 this week
no commentswrite comment
1 2 3 4 5
3 more votes to show rating
add to favorites
launch autoscroll
font size
0
reset
how to read this tab
guitar tuner
Autoscroll
slow
fast
+/-
esc
set tempo
stop
Help us to improve Ultimate-Guitar.com Take our survey!
×
Author
Difficulty
intermediate
TUNING: Eb Ab Db Gb Bb Eb

"\" = Slide down to
"." = Palm Mute

Riff 1 0.00
 Guitar 1
|---------------------------------------------------|
|---------------------------------------------------|
|-----------3---------------------------------------|
|-----------3---------------------------------------|
|-10\-.-.-.-1--.-.-.-.-.-.-.-.-.-------------444444-|
|-10\-0-0-0-1--0-0-0-0-0-0-0-0-0-222222333333-------|
|
|Guitar 2
|---------------------------------------------------|
|---------------------------------------------------|
|-----------3---------------------------------------|
|-----------3---------------------------------------|
|-10\-.-.-.-1--.-.-.-.-.-.-.-.-.-000000111111444444-|
|-10\-0-0-0-1--0-0-0-0-0-0-0-0-0--------------------|

 Riff 1 continued
 Guitar 1
|-------------------------------------------|
|-----------------------------------------5-|
|-------3---------------------------------6-|
|-------3---------------------------------6-|
|-.-.-.-1--.-.-.-.-.-.-.-.-.--------------4-|
|-0-0-0-1--0-0-0-0-0-0-0-0-0-222222333333---|
|
|Guitar 2
|-------------------------------------------|
|-----------------------------------------5-|
|-------3---------------------------------6-|
|-------3---------------------------------6-|
|-.-.-.-1--.-.-.-.-.-.-.-.-.-000000111111-4-|
|-0-0-0-1--0-0-0-0-0-0-0-0-0----------------|





Verse Riff 0.15

 Guitar 1
|------------------------------------------------------------|
|------------------------------------------------------------|
|-------3--------------------------------------------------3-|
|-------3--------------------------------------------------3-|
|-.-.-.-1--.-.-.--.-.-.--.-.-.--.-.-.--.-.-.--.-.-.--.-.-.-1-|
|-0-0-0-1--0-0-0--0-0-0--0-0-0--0-0-0--0-0-0--0-0-0--0-0-0-1-|
|
|Guitar 2
|------------------------------------------------------------|
|------------------------------------------------------------|
|-------3--------------------------------------------------3-|
|-------3--------------------------------------------------3-|
|-.-.-.-1--.-.-.--.-.-.--.-.-.--.-.-.--.-.-.--.-.-.--.-.-.-1-|
|-0-0-0-1--0-0-0--0-0-0--0-0-0--0-0-0--0-0-0--0-0-0--0-0-0-1-|

 Verse Continued
 Guitar 1
|---------------------------------------------|
|-------------------------------------------5-|
|-------3-----------------------------------6-|
|-------3-----------------------------------6-|
|-.-.-.-1--.-.-.--.-.-.--.-.-.--------------4-|
|-0-0-0-1--0-0-0--0-0-0--0-0-0-222222333333---|
|
|Guitar 2
|---------------------------------------------|
|-------------------------------------------5-|
|-------3-----------------------------------6-|
|-------3-----------------------------------6-|
|-.-.-.-1--.-.-.--.-.-.--.-.-.-000000111111-4-|
|-0-0-0-1--0-0-0--0-0-0--0-0-0----------------|






Riff 3 0.28

 Guitar 1
|-----------------------|
|-----------------------|
|-------3---------------|
|-------3---------------|
|-.-.-.-1--.-.-.------2-|
|-0-0-0-1--0-0-0--2-3---|
|
|Guitar 2
|-----------------------|
|-----------------------|
|-------3-------------4-|
|-------3---------4-5---|
|-.-.-.-1--.-.-.--------|
|-0-0-0-1--0-0-0--------|







Riff 4 BEFORE BREAKDOWN 1.20
 Guitar 1
|-------------------------------------------|
|-------------------------------------------|
|-------3-----------------------------------|
|-------3---------------------------------2-|
|-.-.-.-1--.-.-.-.-.-.-.-.-.--------------4-|
|-0-0-0-1--0-0-0-0-0-0-0-0-0-222222333333-4-|
|
|Guitar 2
|-------------------------------------------|
|-----------------------------------------5-|
|-------3---------------------------------6-|
|-------3---------------------------------6-|
|-.-.-.-1--.-.-.-.-.-.-.-.-.-000000111111---|
|-0-0-0-1--0-0-0-0-0-0-0-0-0----------------|







Riff 5 after breakdown 1.29
 Guitar 1
|---------------------------------------------|
|---------------------------------------------|
|---------------------------------------------|
|-6--------------4-\-3-/-4--------------4-\-3-|
|-4--------------2-\-1-/-2--------------2-\-1-|
|---000000000000-----------000000000000-------|
|
|Guitar 2 [Comes in after guitar 1 plays riff 2 times]
|---------------------------------------------|
|---------------------------------------------|
|---------------------------------------------|
|-6--------------4-\-3-/-4--------------4-\-3-|
|-4--------------2-\-1-/-2--------------2-\-1-|
|---000000000000-----------000000000000-------|







Riff 6 1.48
 Guitar 1
|-------------------------|
|-------------------------|
|-------------------------|
|-6-----6-----3-----------|
|-4-----4-----1-----------|
|---000---000---000000000-|
|
|Guitar 2
|-------------------------|
|-------------------------|
|-------------------------|
|-6-----6-----3-----------|
|-4-----4-----1-----------|
|---000---000---000000000-|

End.
Suggest correction
Give kudos to tab author, rate the tab!
1 2 3 4 5
comments
print report bad tab
guest
You may want to rate the tab now too:
select rating
Wanna post a correction for this tab? Suggest correction