Oops, an error
Loading. Please wait.

Smoke On The Water Tab

80,328 views 3 this week
47 commentsread comments
1 2 3 4 5
not so good
x 42
add to favorites
launch autoscroll
font size
0
reset
how to read this tab
guitar tuner
Tab Pro tools
  • play this tab
  • loop segment
  • change instrument
  • show fretboard
  • metronome
×
Best way to learn
"Smoke On The Water"
Autoscroll
slow
fast
+/-
esc
set tempo
stop
Title: Smoke on the water


There are 2 versions of the song.  Here is the old.

e|----------------------------------------|
B|----------------------------------------|
G|------3--5------3--5-6-5------3--5--3---|
D|---5--3--5---5--3--5-6-5---5--3--5--3--5|
A|---5---------5-------------5-----------5|
E|----------------------------------------|

Now here is my version

e|---------------------------------------|
B|---------------------------------------|
G|---------------------------------------|
D|---------------------------------------|
A|--2--5--7--2--5--7-8-7----2--5--7--5--2|
E|--0--3--5--0--3--5-6-5----0--3--5--3--0|
comments
print report bad tab
47 comments total. Showing first comments.
+3 reply
altered wrote on April 17 2004, 12:00 am

your a ***in dumb ass

+3 reply
GuitarKid105 wrote on June 3 2004, 12:00 am

On your tab you need to change it. Here's the correct way. (Even though, like he said, it's not Cannibl Corpse)

e|--------------------------------------|
B|--------------------------------------|
G|--------------------------------------|
D|--------------------------------------|
A|--2--5--7--2--5--8-7---2--5--7--5--2--|
E|--0--3--5--0--3--6-5---0--3--5--3--0--|

+1 reply
lilmonkeyman134 wrote on June 23 2004, 12:00 am

deep purple

I want to post or [tab]
guest
You may want to rate the tab now too:
select rating
Please do not post tabs as comments. Select "correction" instead!