Oops, an error
Loading. Please wait.

Stabbed In The Throat Tab

version 1
version 1

Whole song

Interactive

861 views 1 this week
no commentswrite comment
1 2 3 4 5
please rate
add to favorites
launch autoscroll
font size
0
reset
how to read this tab
guitar tuner
Autoscroll
slow
fast
+/-
esc
set tempo
stop
Help us to improve Ultimate-Guitar.com Take our survey!
×
Contributor
Difficulty
advanced
.  - palm mute           /  - slide up to
  - slide down to       ~  - vibrato
h  - hammer on           b  - Bend
p  - pull off            Suffixes for bend
t  - tap                 f  - full bend    h - half bend
ph - pinched harmonic    q  - quarter bend t - tap bend
*  - see comment         ^  - Hold bend    r release bend
x  - Stuccatto           ~  - vibrato bend
,  - slight palm mute    () - ghost note, sustained note
"  - tremolo note        <> - Trill

Tunning Bb.

Riff1
                 _________________________1 ________________________________2
|-------------|---------------------------|----------------------------------|
|-------------|---------------------------|----------------------------------|
|-------------|---------------------------|----------------------------------|
|-------5h6p5-|---------------------------|----------------------8-9---------|
|-------------|---------------------------|--------------------------10-11---|
|-0-0-7-------|-7-0-10-0-7-10h11p10-6h7p6-|-7-0-10-7-7h10-0-0-10-------------|
  . . .         . .  . . .                  . .  . .      . .  .
Riff2
|------------------------------------------------------------------|
|------------------------------------------------------------------|
|------------------------------------------------------------------|
|------------------------------------------------------------------|
|--------7---------------7---10-----------7-------------------7----|
|-6-0-7----0-6-0-7-0-6-0---0----0-6-0-7-0---0-6-0-7-0-6-0-5-0---0--|
  . . .  . . . . . . . . . .  . . . . . . . . . . . . . . . . . .
Riff3
|----------------------------------------------------------------------------|
|----------------------------------------------------------------------------|
|----------------------------------------------------------------------------|
|----------------------------------------------------------------------------|
|-11---7"-8"--11--11"-10"--11--7"-8"--11--11---|
|----9-7-----------9-7-------------9-7-----------9-7-7-4-0-3-0-0----9-7------|
  .  . .         . . .           . . .        .  . . . . . . . .  . . .
Riff4
|--------------------------------------------------------------------------------|
|--------------------------------------------------------------------------------|
|--------------------------------------------------------------------------------|
|--------------------------------------------------------------------------------|
|---7---8---7---10--------------8-------8---7---10-------------------------------|
|-7---7---7---7----0-10"-6"-7-7---7-7-7---7---7----0-10"-6"--|
  . . . . . . . .  .        . . . . . . . . . . .  .
                                            ____________1
|------------------------------------------|-------------------------|
|------------------------------------------|-------------------------|
|------------------------------------------|-------------------------|
|------------------------------------------|-------------------------|
|---------8-----------8---7---10-----------|---------8---------------|
|-7-0-8-0---0-7-0-8-0---0---0----0-10"-6"--|-7-0-8-0---0---|
  . . . . . . . . . . . . . . .  .           . . . . . .

Riff5
|-------------------------------------------------------------------|
|-------------------------------------------------------------------|
|-------------------------------------------------------------------|
|---------------------7/6-------------------------------------------|
|-------2-2-2-2-------5/4-------2-2-------------2-2-2-2-------------|
|-3h6p3-0-0-0-0-3h6p3-----3h6p3-0-0-2h3p2-3h6p3-0-0-0-0-------------|
        . . . .                 . .             . . . .

|------------------------------------------------------------|
|------------------------------------------------------------|
|------------------------------------------------------------|
|-------7/6-----------7/6---------------------7/6------------|
|-------5/4---------6-5/4-------2-2-2-2-------5/4-------2-2--|
|-3h6p3-----3h6p3-0-------3h6p3-0-0-0-0-3h6p3-----3h6p3-0-0--|
                  . .           . . . .                 . .
|---------------------------------------------------------------------------|
|---------------------------------------------------------------------------|
|---------------------------------------------------------------------------|
|---------------------------7/6---------8---8--7---910-7/6---7---7/6--10----|
|-------------2-2-2-2-------5/4---------6---6--5---78--5/4---5---5/4---8----|
|-2h3p2-3h6p3-0-0-0-0-3h6p3-----3h6p3-0---0------0----------0---0-----0-----|
              . . . .                 .   .      .          .   .     .
Riff6 (part 1)
|--------------------------------------------------------------------|
|--------------------------------------------------------------------|
|--------------------------------------------------------------------|
|--------------------------------------------------------------------|
|----7"-8"---------------10"-11"-----------------|
|-6"-------1077-1077--9"---------131010-131010-------------|
           . .. .. .             .  . . .  . .
Repeat Riff5

Riff6 (part 2)                                       (part 3)
|----------------------------------------------|-----------------------------|
|----------------------------------------------|-----------------------------|
|--------------------------9"-10"----------|-----------------------|
|---------------------------8"-----------------|------------------------|
|----10"-11"-----------------888-888/-|-----7-8-5------------------|
|-9"---------131010-131010------------|--0"-------0"-8-0-5----|
             .  . . .  . .            ... ...        . . .    . . .
Riff7                                  (part 1)
|---------------------------------|---------------------|
|---------------------------------|---------------------|
|--------------8-7----------------|---------------------|
|-----6-7---------------8-9--9-10-|---------------------|
|-5-8-----7-10-----8-11------7-8--|-7-7/6-6-6/5-5-5/4/3-|
|---------------------------------|-5-5/4-4-4/3-3-3/2/1-|
  . . . . . .  . . . .  . .         .     .     .
Riff8
|-------------------|--------|---------------|--------------------|----------|
|-------------------|--------|---------------|--------------------|----------|
|----------------7-|--------|-----|----------------12-|----------------------|
|-6-5---|-part 3-|-Riff7-(part 1)|---9--|-part 3-----------------------------|
|---5-4-|--------|---------------|----8-7------------------------------------|
|-3------|--------|---------------|-6-----------------|----------------------|

|------------------------------------|----------------|
|------------------------------------|----------------|
|------------------12-11-------------|----------------|
|------10-11-------------------12-13-|-Riff7 (part 1)-|
|-9-12-------11-13-------12-15-------|----------------|
|------------------------------------|----------------|
  .  .  .  .  . .   .  .  .  .  .  .
Pat O'Brien Solo. (will figure this out later)

Repeat Riff3 under the solo.

Repeat Riff4
Repeat Riff1

|---|
|---|
|---|
|---|
|-2-|
|-0-|
  .

End.
Suggest correction What's this?
You can suggest a correction to this tab. Community and Mods will review your correction and vote to approve or reject it.
comments
We did not receive enough feedback on this tab! Please rate:
print report bad tab
1 2 3 4 5
I want to post or [tab]
guest
You may want to rate the tab now too:
select rating
Please do not post tabs as comments. Select "correction" instead!