Oops, an error
Loading. Please wait.

Staring Through The Eyes Of The Dead Tab

version 2
version 2

Whole song

Interactive

1,742 views 1 this week
no commentswrite comment
1 2 3 4 5
please rate
add to favorites
launch autoscroll
font size
0
reset
how to read this tab
guitar tuner
Autoscroll
slow
fast
+/-
esc
set tempo
stop
Help us to improve Ultimate-Guitar.com Take our survey!
×
Author
Name:Staring Through The Eyes Of The Dead
Album:The Bleeding
By: Cannibal Corpse Written By Chris Barnes                          
Tabbed By: Randy(Kreator142)
E-mail:Metaldeth161@aol.com

.  - palm mute           /  - slide up to
\  - slide down to       ~  - vibrato
h  - hammer on           b  - Bend
p  - pull off            Suffixes for bend
t  - tap                 f  - full bend    h - half bend
ph - pinched harmonic    q  - quarter bend t - tap bend
*  - see comment         ^  - Hold bend    r release bend
x  - Stuccatto           ~  - vibrato bend
,  - slight palm mute    () - ghost note, sustained note
"  - tremolo note        <> - Trill


Intro 1x       
|--------------|
|--------------|
|--------------|
|--------------|
|--------------|
|-8//11---8//11|
|-6//9--0-6//9-|


 Riff 1 Repeat
|---------------------------------|
|---------------------------------|
|---------------------------------|
|---------------------------------|
|-------8--5-------8--5-----------|
|-------8--5-------8--5-3p4p3p4p3-|
|-0-000-6--3-0-000-6--3-----------|

|------------------------------------------|
|------------------------------------------|
|------------------------------------------|
|------------------------------------------|
|-------8--5-------8--5--------------------|
|-------8--5-------8--5-3p4p3p4p3-2p3p2p3p2|
|-0-000-6--3-0-000-6--3--------------------|



(Repeat once at end of Riff 1)
|-------------|               
|-------------|               
|-------------|               
|-------------|               
|-8//11--8//11|               
|-6//9-0-6//9-|              


| 2nd Riff Repeat 4x
|----------------------------------------------|
|----------------------------------------------|
|----------------------------------------------|
|----------------------------------------------|
|----------------------------------------------|
|-3333333333336666666666663333333333336p9p6p9p6|





Back To Riff 1 play 3x
next comes

3rd Riff Repeat 4x         4th riff Repeat 4x after Riff 3 
|-------------------------|------------------------|       
|-------------------------|------------------------|       
|-------------------------|------------------------|       
|-------------------------|------------------------|       
|11-8---9-8---8-5---5-4---|11/8---9/8---8/5---5/4--|       
|-9-6-0-7-6-0-6-3-0-3-2-0-|-9/6-0-7/6-0-6/3-0-3/2-0|       

|after Riff 3
|------------|
|------------|
|------------|
|----------/8|
|-8-6--5-4-/8|
|-8-6--5-4-/8|
 

Riff 5 Repeat 5x
 P.M====================================================
|-------------------------------------------------------|
|-------------------------------------------------------|
|-------------------------------------------------------|
|-------------------------------------------------------|
|---------------3p4p3p4--------------------3p4p3p4------|
|-0000002p3p2p2---------4~4~-0000002p3p2p3---------4~4~-|

 Riff 6 Repeat 3x 
 P.M==================================================
|-----------------------------------------------------|---------|
|-----------------------------------------------------|---------|
|---------------------------------------------------9-|-------9-|
|--------8--8--------8--8--------11-11--------------9-|-------9-|
|--------8--8--------8--8--------11-11--------------7-|11-8---7-|
|-000000/6--6-000000/6--6-000000/9--9---9-0-7-6-7-----|-9-6-0---|

After That Repeat Riffs 3 and 4 then Play Riff 5 and 6 during the solo then,
 play Riff 5any comments or Questions Please e-mail me (Name is at the top)
Suggest correction
What's this?
You can suggest a correction to this tab. Community and Mods will review your correction and vote to approve or reject it.
comments
We did not receive enough feedback on this tab! Please rate:
print report bad tab
1 2 3 4 5
guest
You may want to rate the tab now too:
select rating
Please do not post tabs as comments. Select "correction" instead!