Oops, an error
Loading. Please wait.

Staring Through The Eyes Of The Dead Tab

version 3
version 3

Whole song

Interactive

1,219 views 3 this week
1 commentread comment
1 2 3 4 5
excellent!
x 5
add to favorites
launch autoscroll
font size
0
reset
how to read this tab
guitar tuner
Autoscroll
slow
fast
+/-
esc
set tempo
stop
Help us to improve Ultimate-Guitar.com Take our survey!
×
Cannibal Corpse
The Bleeding
Staring Through The Eyes Of The Dead

.  - palm mute
\  - slide down to
/  - slide up to
h  - hammer on
p  - pull off
t  - tap
ph - pinch harmonic
~  - vibrato
b  - bend
r  - release bend
tr - trill
x  - mute
*  - comment

Tuning: Eb Ab Db Gb Bb Eb

Guitar I - Rob Barret (Right channel
Guitar II - Jack Owen (Left channel)



Figure 1 x1
|---------------|
|---------------|
|---------------|
|---------------|
|-/8-----/8---8-|
|-/6---0-/6---6-|
       .



Figure 2 x2
|-----------------------------------------------------------------|
|-----------------------------------------------------------------|
|-----------------------------------------------------------------|
|-----------------------------------------------------------------|
|-----------------------------------------------------------------|
|-0-000-6h9p6h9p6h9-3h6p3h6p3h6---0-000-6h9p6h9p6h9-3h6p3h6p3h6---|
  . ...                           . ...


------------------------------------------------------------------|
------------------------------------------------------------------|
------------------------------------------------------------------|
------------------------------------------------------------------|
--6h9p6h9p6h9-----------------------------------------------------|
----------------0-000-6h9p6h9p6h9-3h6p3h6p3h6---0-000-6h9p6h9p6h9-|
                . ...                           . ...


                               GUITAR I   OR   GUITAR II
--------------------------|----------------|-------------|
--------------------------|----------------|-------------|
--------------------------|----------------|-------------|
--------------------------|----------------|-------------|
--------------6h9p6h9p6h9-|-9h11p9h11p9h11-|-5h8p5h8p5h8-|
--3h6p3h6p3h6-------------|----------------|-------------|



Repeat Figure 1 x1
Repeat Figure 2 x2
Repeat Figure 1 x1



Figure 3 x4
|----------------------------------------------------------------|
|----------------------------------------------------------------|
|----------------------------------------------------------------|GUITAR I
|----------------------------------------------------------------|
|----------------------------------------------------------------|
|-666666666666-999999999999-666666666666-6h9p6h9p6h9p6h9p6h9p6h9-|
  ............ ............ ............



|----------------------------------------------------------------|
|----------------------------------------------------------------|
|----------------------------------------------------------------|GUITAR II
|----------------------------------------------------------------|
|----------------------------------------------------------------|
|-333333333333-666666666666-333333333333-6h9p6h9p6h9p6h9p6h9p6h9-|
  ............ ............ ............



Repeat Figure 2 x2
Repeat Figure 1 x1



Figure 4A x4
|--------------------------|
|--------------------------|
|--------------------------|
|--------------------------|
|-11-8---9-8---8-5---5-4---|
|-9--6-0-7-6-0-6-3-0-3-2-0-|
  .  . . . . . . . . . . .



Figure 4B x3
|--------------------------|
|--------------------------|
|--------------------------|
|--------------------------|
|-11-8---9-8---8-5---5-4---|
|-9--6-0-7-6-0-6-3-0-3-2-0-|



Figure 4C x1
|-----------------------------|
|-----------------------------|
|-----------------------------|
|-----------------------------|
|-11-8---9-8---8-5---5-4---/8-|
|-9--6-0-7-6-0-6-3---3-2---/6-|



Figure 5A x8
|---------------------------------|
|---------------------------------|
|---------------------------------|
|---------------------------------|
|------------------3h4p3h4---/8-8-|
|-00000000-0h2-3h4-----------/6-6-|
  ........



Figure 5B x3
|----------------------------------|
|----------------------------------|
|----------------------------------|
|----------------------------------|
|----------/8-8-------------/8-8---|
|-00000000-/6-6----00000000-/6-6---|
  ........         ........

-----------------------------------|
-----------------------------------|
-----------------------------------|
--------------------------------10-|
-----------/11-11---------------8--|
--00000000-/9--9----9-6-0-7-6-0-8--|
  ........          . . . . . .



Figure 5C x1
|---------------------------------------------------|
|---------------------------------------------------|
|---------------------------------------------------|
|---------------------------------------------------|
|----------/8-8-------------/8-8-------------/11-11-|
|-00000000-/6-6----00000000-/6-6----00000000-/9--9--|
  ........         ........         ........



Figure 6A x2
|--------------|     |--------------|
|--------------|     |--------------|
|--------------|x3   |--------------|x1
|--------------|     |--------9---9-|
|-11-8---9-8---|     |-11-8---7---7-|
|-9--6-0-7-6-0-|     |-9--6-0-7---7-|
  .  . . . . .         .  . .



Figure 6B x1
|--------------|     |--------------|
|--------------|     |--------------|
|--------------|x3   |--------------|x1
|--------------|     |--------9---9-|
|-11-8---9-8---|     |-11-8---7---7-|
|-9--6-0-7-6-0-|     |-9--6-0-7---7-|



Figure 6C x1
|--------------|     |---------------|
|--------------|     |---------------|
|--------------|x3   |---------------|x1
|--------------|     |--------9---9\-|
|-11-8---9-8---|     |-11-8---7---7\-|
|-9--6-0-7-6-0-|     |-9--6-0-7---7\-|



Repeat Figure 5A x4
Repeat Figure 5B x3
Repeat Figure 5C x1



Figure 7 x1
|-------------------------------------|
|-----5-------8-------5---------------|
|-6---4---3---7---6---4---------------| GUITAR I
|-6---2---3---5---6---2---------------|
|-4---2---1-------4---2---------------|
|-------------------------/6~\---/9~\-|



|-------------------------------------|
|-------------------------------------|
|-3-------3-------3-------3-----------| GUITAR II
|-3---2---3---2---3---2---3------2----|
|-1---2---1---2---1---2---1------2----|
|-------------------------------------|



Repeat Figure 6A x2
Repeat Figure 6B x1



Figure 8 x3
|--------------|
|--------------|
|--------------|x3
|--------------|
|-11-8---9-8---|
|-9--6-0-7-6-0-|



Figure 9 x1
|----------------|
|----------------|
|----------------|
|----------------|
|-8-5---5-4---/8-|
|-6-3---3-2---/6-|



Repeat Figure 5A x4
Repeat Figure 5B x4
Repeat Figure 5A x2



Figure 10 x2
|---------------------------------|
|---------------------------------|
|---------------------------------| GUITAR I
|---------------------------------|
|------------------3h4p3h4--------|
|-00000000-0h2-3h4-----------/9-9-|
  ........



|---------------------------------|
|---------------------------------|
|---------------------------------| GUITAR II
|---------------------------------|
|------------------3h4p3h4---/8-8-|
|-00000000-0h2-3h4-----------/6-6-|
  ........



Figure 11A x3
|---------------------------|
|---------------------------|
|---------------------------|
|---------------------------|
|-8-5---5-4---/8-8----------|
|-6-3---3-2---/6-6-00000000-|
    .   . .        ........


Figure 11B x1
|---------------------------|* Let the last chord
|---------------------------|  ring
|---------------------------|
|---------------------------|
|-8-5---5-4---/8-8----------|
|-6-3---3-2---/6-6----------|
    .   . .



End with this
|---|
|---|
|---|
|---|
|-2-|
|-0-|

DONE!
Suggest correction
comments
print report bad tab
1 comment total.
+1 reply
Marcus 90 1,420 wrote on August 5 2013, 06:13 am

Extremly Accurate, good job man.

guest
You may want to rate the tab now too:
select rating
Please do not post tabs as comments. Select "correction" instead!