Oops, an error
Loading. Please wait.

Stripped Raped And Strangled Tab

version 2
version 2

Whole song

Interactive

7,550 views 51 this week
3 commentsread comments
1 2 3 4 5
x 3
add to favorites
launch autoscroll
font size
0
reset
how to read this tab
guitar tuner
Autoscroll
slow
fast
+/-
esc
set tempo
stop
Help us to improve Ultimate-Guitar.com Take our survey!
×
Author
                             #Please Note#
This file is the author's own work and represents their interpretation of the
song. You may only use this file for private study, scholarship, or research.

Cannibal Corpse
The Bleeding
Stripped Raped And strangled

Copyright (c)  Metal Blade Records
16/6/11

Transcribed By: Nicholas Hume
Email:          Humezanator@hotmail.com


.  - palm mute           /  - slide up to
\  - slide down to       ~  - vibrato
h  - hammer on           b  - Bend
p  - pull off            Suffixes for bend
t  - tap                 f  - full bend    h - half bend
ph - pinched harmonic    q  - quarter bend t - tap bend
*  - see comment         ^  - Hold bend    r release bend
x  - Stuccatto           ~  - vibrato bend
,  - slight palm mute    () - ghost note, sustained note
"  - tremolo note        <> - Trill

Tuning: Tuning D# G# C# F# A# D#  (Eb, Ab, Db,Gb, Bb, eb)

I tabbed this song by ear so dont expect it to be 100% exactly the same.  Although when 
playing it still sounds the same.

Intro x2

|----------------------------| Guitar I, II
|----------------------------|
|----------------------------|
|----------------------------|
|-44--3--5--222---222--222---|
|-22--1--3--000---000--000---|
  ..  .  .  ...   ...  ...

Riff A1 x2

|----------------------------| Guitar I
|----------------------------|
|----------------------------|
|----------------------------|
|-44--3--5--222---222--222---|
|-22--1--3--000---000--000---|
  ..  .  .  ...   ...  ...

|------------------------------------| Guitar II
|------------------------------------|
|------------------------------------|
|------------------------------------|
|-44--3--5--2-2-2-2-2-2-2-2-2-2-2-2--|
|-22--1--3--0-0-0-0-0-0-0-0-0-0-0-0--|
  ..  .  .  . . . . . . . . . . . .

Riff A2 x2

|----------------------------| Guitar I
|----------------------------|
|----------------------------|
|----------------------------|
|-44--3--5--222---222--222---|
|-22--1--3--000---000--000---|
  ..  .  .  ...   ...  ...

|-----------------------------| Guitar II
|-----------------------------|
|-----------------------------|
|-----------------------------|
|-44--3--5--------------------|
|-22--1--3--00000000000000000-|
  ..  .  .  .................

Riff A3 x 3

|-----------| Guitar I, II
|-----------|
|-----------|
|-----------|
|-44--3--5--|
|-22--1--3--|
  ..  .  .
|----------------------------||------------------------| Guitar I
|----------------------------||------------------------|
|----------------------------||------------------------| 
|----------------------------||--6-<9>--7-<10>---------|
|----------------------------||------------------------|
|-0000000000--4-<7>--5-<8>---||------------------------|
  ..........

There is another way to play the above riff without the trilling.

|------------------|
|------------------|
|------------------|
|------------------|
|-2222222-3333333--|
|-4444444-5555555--|

Intro Riff Again x2

|----------------------------|  Guitar I
|----------------------------|
|----------------------------|
|----------------------------|
|-44--3--5--222---222--222---|
|-22--1--3--000---000--000---|
  ..  .  .  ...   ...  ...

(They Think They know who I am....)

Riff A1 Again x2

|----------------------------|  Guitar I
|----------------------------|
|----------------------------|
|----------------------------|
|-44--3--5--222---222--222---|
|-22--1--3--000---000--000---|
  ..  .  .  ...   ...  ...


|------------------------------------| Guitar II
|------------------------------------|
|------------------------------------|
|------------------------------------|
|-44--3--5--2-2-2-2-2-2-2-2-2-2-2-2--|
|-22--1--3--0-0-0-0-0-0-0-0-0-0-0-0--|
  ..  .  .  . . . . . . . . . . . .

(Face down dead on the ground...)

Riff A4 x4

|-----------------------------------------|  Guitar I,II
|-----------------------------------------|
|-----------------------------------------|
|-----------------------------------------|
|-44--3--5----------6/7--6/7----7/8--7/8--|
|-22--1--3--000000--4/5--4/5-00-5/6--5/6--|
  ..  .  .  ......  . .  . . .. . .  . .

(I come alive in the darkness.....)

Riff A1 Again x2

|---------------------------|  Guitar I
|---------------------------|  
|---------------------------|
|---------------------------| 
|-44--3--5--222---222--222--|
|-22--1--3--000---000--000--|
  ..  .  .  ...   ...  ...

|------------------------------------| Guitar II
|------------------------------------|
|------------------------------------|
|------------------------------------|
|-44--3--5--2-2-2-2-2-2-2-2-2-2-2-2--|
|-22--1--3--0-0-0-0-0-0-0-0-0-0-0-0--|
  ..  .  .  . . . . . . . . . . . .

(She was so Beautiful.....)

Start of Riff A5:

|-----------|  Guitar I,II
|-----------|
|-----------|
|-----------|
|-44--3--5--|
|-22--1--3--|
  ..  .  .

Riff A5 x4

|-----------------------------------------|  Guitar I,II
|-----------------------------------------|
|-----------------------------------------|
|-----------------------------------------|
|-3/4--3/4--4/5--4/5--6/7--6/7--7/8--7/8--|
|-1/2--1/2--2/3--2/3--4/5--4/5--5/6--5/6--|
  . .  . .  . .  . .  . .  . .  . .  . .

Riff A6 x4

|--------------------------------|  Guitar I
|--------------------------------|
|--------------------------------|
|--------------------------------|
|-4----------------4------3-2-1--|
|-2-2"--/---5<8>---2-2"----------|
  .                .

(Tied her up, taped her mouth shut....)

Riff A5 Again x4

|-----------------------------------------|  Guitar I,II
|-----------------------------------------|
|-----------------------------------------| 
|-----------------------------------------|  
|-3/4--3/4--4/5--4/5--6/7--6/7--7/8--7/8--|
|-1/2--1/2--2/3--2/3--4/5--4/5--5/6--5/6--|  
  . .  . .  . .  . .  . .  . .  . .  . .     

(Strangulation cause of death...)

During the fourth repetition guitar II plays

|------------------|
|------------------|
|------------------|
|-4"--5"---7"--8"--|
|------------------|
|------------------|

(They're all dead...)


Riff A4 x4

|-----------------------------------------|  Guitar I,II
|-----------------------------------------|
|-----------------------------------------|
|-----------------------------------------|
|-44--3--5----------6/7--6/7----7/8--7/8--|
|-22--1--3--000000--4/5--4/5-00-5/6--5/6--|
  ..  .  .  ......  . .  . . .. . .  . .

(I come alive in the darkness.....)


Riff A1 Again x2

|---------------------------------------|  Guitar I
|---------------------------------------|  
|---------------------------------------|
|---------------------------------------| 
|-44--3--5--222---222--222--------------|
|-22--1--3--000---000--000--------------|
  ..  .  .  ...   ...  ...

|------------------------------------| Guitar II
|------------------------------------|
|------------------------------------|
|------------------------------------|
|-44--3--5--2-2-2-2-2-2-2-2-2-2-2-2--|
|-22--1--3--0-0-0-0-0-0-0-0-0-0-0-0--|
  ..  .  .  . . . . . . . . . . . .

(It felt so good to kill.....)

Riff A1 Again x2

|---------------------------------------|  Guitar I
|---------------------------------------|  
|---------------------------------------|
|---------------------------------------| 
|-44--3--5--222---222--222--------------|
|-22--1--3--000---000--000--------------|
  ..  .  .  ...   ...  ...


Start of riff A7

|-----------| Guitar I,II
|-----------|
|-----------|
|-----------|
|-44--3--5--|
|-22--1--3--|
  ..  .  .

Riff A7 x2

|------------------------------|  Guitar I
|------------------------------|
|------------------------------|
|------------------------------|
|------------------------------|
|-4----------------------3-2-1-|
|-2----------------------------|
  .
|--------------------------------|  Guitar II
|--------------------------------|
|--------------------------------|
|--------------------------------|
|--------------------------------|
|-4-------3-<6>---4--------3-2-1-|
|-2-2"------------2-2"-----------|
  . .             . .

Riff A8 x4

|----------------------------------| Guitar I
|----------------------------------|
|----------------------------------|
|----------------------------------|
|---------2--<5>--3--<6>--443-321--|
|-000000------------------221------|
  ......                  ...

|---------------------------------| Guitar II
|---------------------------------|
|---------------------------------|
|-----------------------------210-|
|-------------------------443-----|
|-000000--4--<7>--5--<8>--221-----|
  ......                  ...


Riff A9 x4


|-----------------------------------------| Guitar I
|-----------------------------------------|
|-----------------------------------------|
|--------------6--<9>---7--<10>-----------|
|--------------------------------44-3-321-|
|-000000000000-------------------22-1-----|
  ............                   .. .


|------------------------------------------| Guitar II
|------------------------------------------|
|------------------------------------------|
|--------------------------------------210-|
|---------------------------------44-3-----|
|-000000000000--7--<10>---8--<11>--22-1----|
  ............                    .. .

(I took their lives away....)

Riff A10 x4

|-----------------------------| Guitar II
|-----------------------------|
|-----------------------------|
|-9--<12>---10--<13>------210-|
|--------------------44-3-----|
|--------------------22-1-----|
                     .. .

Riff A5 Again x4

|-----------------------------------------|  Guitar I,II
|-----------------------------------------|
|-----------------------------------------| 
|-----------------------------------------|  
|-3/4--3/4--4/5--4/5--6/7--6/7--7/8--7/8--|
|-1/2--1/2--2/3--2/3--4/5--4/5--5/6--5/6--|  
  . .  . .  . .  . .  . .  . .  . .  . .     

(Strangulation cause of death...)

During the fourth repetition guitar II plays

|------------------|
|------------------|
|------------------|
|-4"--5"---7"--8"--|
|------------------|
|------------------|

(They're all dead...)
Riff A4 x4 Again

|-----------------------------------------|  Guitar I,II
|-----------------------------------------|
|-----------------------------------------|
|-----------------------------------------|
|-44--3--5----------6/7--6/7----7/8--7/8--|
|-22--1--3--000000--4/5--4/5-00-5/6--5/6--|
  ..  .  .  ......  . .  . . .. . .  . .

(I come alive in the darkness.....)


Riff A2 x2 Again

|----------------------------| Guitar I
|----------------------------|
|----------------------------|
|----------------------------|
|-44--3--5--222---222--222---|
|-22--1--3--000---000--000---|
  ..  .  .  ...   ...  ...

|-----------------------------| Guitar II
|-----------------------------|
|-----------------------------|
|-----------------------------|
|-44--3--5--------------------|
|-22--1--3--00000000000000000-|
  ..  .  .  .................

(They think they know who I am....)

Riff A11

|-----------------------| Guitar I
|-----------------------|
|-----------------------|
|-----------------------|
|-44--3--5--------------|
|-22--1--3--000-000-000-|
  ..  .  .  ... ... ...

|------------------------| Guitar II
|------------------------|
|------------------------|
|------------------------|
|-44--3--5-----2---2---2-|
|-22--1--3-----0---0---0-|
  ..  .  .     .   .   .

(Face down dead on the ground)

Riff A12

|-----------------------------------------| Guitar I, II
|-----------------------------------------|
|-----------------------------------------|
|-----------------------------------------|
|-44--3--5--222---222--222--222--222--222-|
|-22--1--3--000---000--000--000--000--000-|
  ..  .  .  ...   ...  ...  ...  ...  ...

(Find me before another is found....)

Closing Riff

|-------------| Guitar I, II
|-------------|
|-------------|
|-------------|
|-44--3--5--2-|
|-22--1--3--0-|
  ..  .  .  .

Enjoy, please send any corrections, concerns, requests to my email: Humezanator@hotmail.com
Suggest correction
Give kudos to tab author, rate the tab!
1 2 3 4 5
comments
print report bad tab
3 comments total.
-2 reply
Goth JR 30 Feb 09, 2013 01:07 AM

3-3-1-0-3-000
For intro I think.

0 reply
venom502 10 Oct 19, 2013 04:21 PM

-------3-->
-210-0-5-->

i think that is the intro, check it out, sounds almost exactly the same as on cd

0 reply
venom502 10 Oct 19, 2013 04:22 PM

-------5-->
-210-0-3-->

i think that is the intro, check it out, sounds almost exactly the same as on cd

@sorry i dont know how to edit my post - i made a mistake on power chord

guest
You may want to rate the tab now too:
select rating
Wanna post a correction for this tab? Suggest correction