Oops, an error
Loading. Please wait.

Submerged In Boiling Flesh Tab

version 1
version 1

Whole song

Interactive

700 views 1 this week
no commentswrite comment
1 2 3 4 5
2 more votes to show rating
add to favorites
launch autoscroll
font size
0
reset
how to read this tab
guitar tuner
Autoscroll
slow
fast
+/-
esc
set tempo
stop
Help us to improve Ultimate-Guitar.com Take our survey!
×
Difficulty
Tuning
advanced
A# F A# D# G C
Band: Cannibal Corpse
Album: Kill
Song: Submerged In Boiling Flesh
Record Label: MetalBlade
Tuning: Bb Eb Ab Db F Bb
Tabber: ben chaffins

-----------¦---------------------------------------------------|
-----------¦---------------------------------------------------|
-----------¦---------------------------------------------------|
-----------¦---------------------------------------------------|
-\\\\\\\\--¦--------2-----------2-----------2-----------3-2----|
-\\\\\\\\--¦--4-3-0---3-2-4-3-0---1-2-4-3-0---3-2-4-3-0-----4--|X4
slide down    pm. .   . . . . .   . . . . .   . . . . . . . .

----------------------------------------------|
----------------------------------------------|
----------------------------------------------|
----------------------------------------------|
-----------5-4---2-5-----------------5-4---7--|
-2-4-2-4-5-3-2-1-----2-4-2h5-3h6-6-5-----5----|X2
 trem..... pm.   trem....        ............

--------------------------------------------------|
--------------------------------------------------|
--------------------------------------------------|
--------------------------------------------------|
-3-4-5-3-4-5-1-2-1-4444-3-4-5-3-4-5-1-2-1-4-1-----|
-1-2-3-1-2-3------------1-2-3-1-2-3-----------2---|X2
 pm. . . . . trem...... pm. . . . . trem.......

---------------------------------------------------|
---------------------------------------------------|
---------------------------------------------------|
---------------------------------------------------|
--------2-----------2-----------2-----------3-2----|
--4-3-0---3-2-4-3-0---1-2-4-3-0---3-2-4-3-0-----4--|X4
  pm. .   . . . . .   . . . . .   . . . . . . . .

----------------------------------------------|
----------------------------------------------|
----------------------------------------------|
----------------------------------------------|
-----------5-4---2-5-----------------5-4---7--|
-2-4-2-4-5-3-2-1-----2-4-2h5-3h6-6-5-----5----|
 trem..... pm.   trem....        ............

----------------------------------------------|
----------------------------------------------|
----------------------------------------------|
----------------------------------------------|
-----------5-4---2-5-------------8-7-5-4---7--|
-2-4-2-4-5-3-2-1-----2-4-2h5-3h6-6-5-----5----|
 trem..... pm.   trem....            .........

----------------------------|
----------------------------|
----------------------------|
----------------------------|
-5-7-8-4-----5-7-8-5\4------|
---------6-4-----------6-4--|X2
 trem... pm. trem..    pm.

----------------------------------------------|
----------------------------------------------|
----------------------------------------------|
----------------------------------------------|
-----------5-4---2-5-----------------5-4---7--|
-2-4-2-4-5-3-2-1-----2-4-2h5-3h6-6-5-----5----|X2
 trem..... pm.   trem....        ............

----------------------------|
----------------------------|
----------------------------|
----------------------------|
-5-7-8-4-----5-7-8-5\4------|
---------6-4-----------6-4--|X2
 trem... pm. trem..    pm.

--------------------------------------------------|
--------------------------------------------------|
--------------------------------------------------|
--------------------------------------------------|
-3-4-5-3-4-5-1-2-1-4444-3-4-5-3-4-5-1-2-1-4-1-----|
-1-2-3-1-2-3------------1-2-3-1-2-3-----------2---|X4
 pm. . . . . trem...... pm. . . . . trem.......

----------------------|
----------------------|
----------------------|
-------------4-3------|
-4-3-6-3-7-6-2-1-4-3--|
-2-1-4-1-5-4-----2-1--|
pm . . . . . . . . .

----------------------------------------------------------------|
----------------------------------------------------------------|
----------------------------------------------------------------|
-------------4-3------------------4-3------------------4-3------|
-3-3-6-3-7-6-2-1-4-3--3-3-6-3-7-6-2-1-4-3--3-3-6-3-7-6-2-1-4-3--|
-1-1-4-1-5-4-----2-1--1-1-4-1-5-4-----2-1--1-1-4-1-5-4-----2-1--|
pm . . . . . . . . .  . . . . . . . . . .  . . . . . . . . . .


--------------------|
--------------------|
--------------------|
---6---6-5-8-7------|
---------------9-8--|
-0---0--------------|X4
pm   .

---------------------------------------------------|
---------------------------------------------------|
---------------------------------------------------|
---------------------------------------------------|
--------2-----------2-----------2-----------3-2----|
--4-3-0---3-2-4-3-0---1-2-4-3-0---3-2-4-3-0-----4--|X4
  pm. .   . . . . .   . . . . .   . . . . . . . .

------------------------------------------------------------------------|
------------------------------------------------------------------------|
------------------------------------------------------------------------|
------------------------------------------------------------------------|
---------------3322----------7--6-----------------------7------6--------|
-11114-22225-44----5544444444-44-44-5-8-7-5-4-4-7-5-4-4--444444-444444--|
             trem.................. pm. . . . . . . . . trem..........

-------------------------------------------------------------|
-------------------------------------------------------------|
-------------------------------------------------------------|
-------------------------------------------------------------|
----3322----------7--6-----------------------7------6--------|
--44----5544444444-44-44-5-8-7-5-4-4-7-5-2-4--444444-444444--|
  trem.................. pm. . . . . . . . . trem..........

----------------------------|
----------------------------|
----------------------------|
----------------------------|
-5-7-8-4-----5-7-8-5\4------|
---------6-4-----------6-4--|X2
 trem... pm. trem..    pm.

-------------------------------------------------------------|
-------------------------------------------------------------|
-------------------------------------------------------------|
-------------------------------------------------------------|
----3322----------7--6-----------------------7------6--------|
--44----5544444444-44-44-5-8-7-5-4-4-7-5-2-4--444444-444444--|
  trem.................. pm. . . . . . . . . trem..........

----------------------------------------------------------------------|
----------------------------------------------------------------------|
----------------------------------------------------------------------|
---------------------------------------------------------7-6-5-4-7-8--|
----3322----------7--6-------------------------------------------5-6--|
--44----5544444444-44-44-5-8-7-5-4-4-7-5-2-2-1-4-3-2-1-0--------------|
  trem.................. pm. . . . . . . . . . . . . . . trem....

----------------------------------------|
----------------------------------------|
----------------------------------------|
-------55555-----4-5-------55555--------|
-6-5-3-------111-2-3-6-5-3-------8-5-4--|
---------------------------------6-3-2--|
 pm. .               . . .

---------------------------------------------|
---------------------------------------------|
---------------------------------------------|
------------55555-----4-5-------55555--------|
-3333-6-5-3-------111-2-3-6-5-3-------8-5-4--|
--------------------------------------6-3-2--|X4
      pm. .               . . .

--------------------------------------¦-----------|
--------------------------------------¦-----------|
--------------------------------------¦-----------|
------------55555-----4-5-------55555-¦--------5--|
-3333-6-5-3-------111-2-3-6-5-3-------¦--8-5-4-3--|
--------------------------------------¦--6-3-2----|X8
      pm. .               . . .



THE END
Suggest correction
Give kudos to tab author, rate the tab!
1 2 3 4 5
comments
print report bad tab
guest
You may want to rate the tab now too:
select rating
Wanna post a correction for this tab? Suggest correction