Oops, an error
Loading. Please wait.

The Exorcist Tab

version 1
version 1

Whole song

Interactive

670 views 1 this week
no commentswrite comment
1 2 3 4 5
please rate
add to favorites
launch autoscroll
font size
0
reset
how to read this tab
guitar tuner
Tab Pro tools
  • play this tab
  • loop segment
  • change instrument
  • show fretboard
  • metronome
×
Best way to learn
"The Exorcist"
Autoscroll
slow
fast
+/-
esc
set tempo
stop
Contributor
Cannibal Corpse
Hammer Smashed Face EP
The Exorcist (Possessed cover)

.  - palm mute
\  - slide down to
/  - slide up to
h  - hammer on
p  - pull off
t  - tap
ph - pinch harmonic
~  - vibrato
b  - bend
r  -  release bend
tr - trill
*  - comment

Tuning: Eb Ab Db Gb Bb Eb

Guitar I - Jack Owen
Guitar II - Bob Rusay

* If anyone wants me to tab a certain song by the band Deicide,
post a comment on my profile.



Figure 1 x4                            Figure 1 Ending x1
|---------------------------------|    |----------|
|---------------------------------|    |----------|
|---------------------------------|    |----------|
|-----------------5-4-------------|    |----------|
|-3-2-3-----------3-2-5-----------|    |-3-2-3----|
|-1-0-1--00000000-----3--00000000-|    |-1-0-1----|



Figure 2 x8
|------------------|
|------------------|
|------------------|
|------------------|
|-55555555-5p4-----|
|-33333333-----5h6-|



Figure 3 x4
|--------------------------------|
|--------------------------------|
|--------------------------------|
|--------------4---------------3-|
|-55555555-3-2-2--55555555-3-2-1-|
|-33333333-1-0----33333333-1-0---|

Play Figure 2 x8
Play Figure 3 x4

Figure 4 x1 (* It's really hard to tab this part!)
|---------------------------------------------------------------------|
|---------------------------------------------------------------------|
|---------------------------------------------------------------------|
|-5555555555558888777777778888886688881188888881081088888118888108108-
|---------------------------------------------------------------------|
|---------------------------------------------------------------------|

|---------------------------------------------------------------------|
|---------------------------------------------------------------------|
|---------------------------------------------------------------------|
|-88881188881081088881188810888811888---------------------------------|
|---------------------------------------------------------------------|
|---------------------------------------------------------------------|

|---------------------------------------------------------------------|
|---------------------------------------------------------------------|
|---------------------------------------------------------------------|
|-55555555555588887777777788888888------------------------------------|
|---------------------------------------------------------------------|
|---------------------------------------------------------------------|

|---------------------------------------------------------------------|
|---------------------------------------------------------------------|
|---------------------------------------------------------------------|
|-666696666666868666669666666686866666966666668686666696666869666-----|
|---------------------------------------------------------------------|

|---------------------------------------------------------------------|
|---------------------------------------------------------------------|
|---------------------------------------------------------------------|
|-55555555555588887777777788888888------------------------------------|
|---------------------------------------------------------------------|
|---------------------------------------------------------------------|



Figure 5 x4
|------------------------------------------------|
|------------------------------------------------|
|------------------------------------------------|
|--------------5---------------7-----------------|
|-555555555555-3--666666666666-5--888888888888-7-|
|-333333333333----444444444444----666666666666-5-|

Play Figure 4 x1
Play Figure 5 x4 (under solo 1)
Play Figure 3 x4 (under solo 2)
Play Figure 2 x16
Play Figure 3 x4
Play Figure 2 x8
Play Figure 3 x4
Play Figure 2 x8
Play Figure 3 x4
Play Figure 4 x1
Play Figure 5 x4
Play Figure 4 x1
Play Figure 3 x4 (* Let last chord ring on fourth time)
Play Figure 1 x4
Play Figure 1 Ending x1

Figure 6 x1
|---------|
|---------|
|---------|
|---------|
|-2-------|
|-0-------|

DONE!
comments
We did not receive enough feedback on this tab! Please rate:
print report bad tab
1 2 3 4 5
I want to post or [tab]
guest
You may want to rate the tab now too:
select rating
Please do not post tabs as comments. Select "correction" instead!