Oops, an error
Loading. Please wait.

The Undead Will Feast Tab

version 2
version 2

Whole song

287 views 1 this week
no commentswrite comment
1 2 3 4 5
1 last vote to show rating
add to favorites
launch autoscroll
font size
0
reset
how to read this tab
guitar tuner
Autoscroll
slow
fast
+/-
esc
set tempo
stop
Help us to improve Ultimate-Guitar.com Take our survey!
×
Cannibal Corpse
Eaten Back To Life
The Undead Will Feast

.  - palm mute
\  - slide down to
/  - slide up to
h  - hammer on
p  - pull off
t  - tap
ph - pinch harmonic
~  - vibrato
b  - bend
tr - trill
*  - comment
 
Tuning: Eb Ab Db Gb Bb Eb



Figure 1 x4
|--------------------------------------------|
|--------------------------------------------|
|--------------------------------------------|
|--------------------------------------------|
|-8-7-5--------------8-8-8-7-5-------------8-|
|-6-5-3-000000000000-6-6-6-5-3-00004000000-6-|
        ............           ...........



Figure 2 x4
|--------------------------------------------|
|--------------------------------------------|
|--------------------------------------------|
|---------------------------------------5----|
|-4-3----------4-3-6-7-4-3----------5-4-3----|
|-2-1-00000000-2-1-4-5-2-1-00000000-3-2------|
      ........             ........

Play Figure 1 x4
Play Figure 2 x4 (* Let the last chord ring)

Figure 3 x8 (* Let the last chord ring)
|-----------------------------|
|-----------------------------|
|-----------------------------|
|---------------6-6-5---------|
|---------------4-4-3---------|
|-2-1-4-1-3-1-1---------------|
  . . . . . . .



Figure 4A x1
|----------------------------|
|----------------------------|
|----------------------------|
|---------------------4/5----|
|-3--2--4\3--2--3--2--2/3--2-|
|-1--0--2\1--0--1--0-------0-|



Figure 4B x2
|-----------------------------------------------------------------|
|-----------------------------------------------------------------|
|-----------------------------------------------------------------|
|------------------------------------------------4/5--------------|
|-3--------------4\3--------------3--------------2/3--------------|
|-1-000000000000-2\1-000000000000-1-000000000000-----000000000000-|
    ............     ............   ............     ............

Play Figure 4A x1
Play Figure 4B x2
Play Figure 4A x1
Play Figure 1 x1
Play Figure 2 x1
Play Figure 1 x1
Play Figure 2 x1 (* Let the last chord ring out)

Figure 5 x1
|-------------------------------------------------|
|-------------------------------------------------|
|-------------------------------------------------|
|-------------------------------------------------|
|-------------------------------------------------|
|-0-0-0-0-0-0-0-0-0-0-0-0-0-0-0-0-0-0-0-0-0-0-0-0-|
  . . . . . . . . . . . . . . . . . . . . . . . .



Figure 6 x4
|---------------------------|
|---------------------------|
|---------------------------|
|-------------4-3-----------|
|-5-----4-----2-1---4-3-----|
|-3-0-0-2-0-0-----0-2-1-----|
    . .   . .     .



Figure 7 x4
|---------------------------|
|---------------------------|
|-------------3h4p3---------|
|-------------------0-3h4p3-|
|-5-----4-------------------|
|-3-0-0-2-0-0---------------|
    . .   . .       .



Figure 8 x4
|---------------------------|
|---------------------------|
|---------------------------|
|-3-----4-----------3/4-----|
|-1-----2-----3/4---1/2-----|
|---0-0---0-0-1/2-0---------|
    . .   . .     .

Play Figure 6 x4
Play Figure 4A x1
Play Figure 4B x2
Play Figure 4A x1
Play Figure 4B x2
Play Figure 4A x1

DONE!
Suggest correction
Give kudos to tab author, rate the tab!
1 2 3 4 5
comments
print report bad tab
guest
You may want to rate the tab now too:
select rating
Wanna post a correction for this tab? Suggest correction