Oops, an error
Loading. Please wait.

They Deserve To Die Tab

version 1
version 1

Whole song

Interactive

6,654 views 1 this week
no commentswrite comment
1 2 3 4 5
accurate
x 5
add to favorites
launch autoscroll
font size
0
reset
how to read this tab
guitar tuner
Tab Pro tools
  • play this tab
  • loop segment
  • change instrument
  • show fretboard
  • metronome
Autoscroll
slow
fast
+/-
esc
set tempo
stop
Contributor
Difficulty
intermediate
Cannibal Corpse - The Wretched Spawn - They Deserve To Die (2004)

.  - palm mute           /  - slide up to
\  - slide down to       ~  - vibrato
h  - hammer on           b  - Bend
p  - pull off            Suffixes for bend
t  - tap                 f  - full bend    h - half bend
ph - pinched harmonic    q  - quarter bend t - tap bend
*  - see comment         ^  - Hold bend    r release bend
x  - Stuccatto           ~  - vibrato bend
,  - slight palm mute    () - ghost note, sustained note
"  - tremolo note        <> - Trill

Tunning Bb.

*Triplets

|----------------|
|----------------|
|--3-------------|
|--3--fade-in----|
|--1-------------|
|----------------|

Riff1
*2 times
|----------------------------------------------------------|
|----------------------------------------------------------|
|-------------------------1ph------------------------------|
|----------------------------------------------------------|
|-5-4-2-4-5-4-2-4-5-4-2-4------5-4-2-4-5-4-2-4-5-4-2-4-----|
|-3-2-0-2-3-2-0-2-3-2-0-2------3-2-0-2-3-2-0-2-3-2-0-2-000-|

Riff2
*Triplets
3 times                                             [*]
|--------------------------------------------|---|-------|
|--------------------------------------------|---|-------|
|--------------------------------------------|---|-------|
|--------------------------------------------|---|-------|
|--------------------------------------------|-8-|-8-----|
|-*12-*9-*6-*11-*8-*6-*10-*7-*6-*11-*8-*7-*6-|-6-|-6-000-|

Repeat Riff1 just 1 time here.
Repeat Riff2 here. with [*]

Riff3
|----------------------------------|
|----------------------------------|
|----------------------------------|
|----------------------------------|
|--------3-4\7---------------------|
|-000-2---------6--6--3--0-000-----|


Riff4
2 times.
|-----------------------------------------------------------------|
|-----------------------------------------------------------------|
|-----------------------------------------------------------------|
|-----------------------6-----------------------------------------|
|--------3-4\7--------------------------------6-3---5-2-----4-1---|
|-000-2---------6-6-6-0---3-3h6p3-0-3-6h3-0-0-----5-----4-3-----3-|
                          .                   . . . . . . . . . .
Riff4

|--------------------------------------------------------------------|
|--------------------------------------------------------------------|
|--------------------------------------------------------------------|
|-----------------5\8-8-8-8-----------------------------------"6-----|
|----*5-----------------------------"4-"11-"5-"4------4h7p4----------|
|-*3----*4-*3-0-0-3\6-6-6-6--3-6-3"---------------6-6-------6---000--|
   .  .  .  .                                     . .       .
Repeat Riff1 here.
Repeat Riff2 here with [*] (see above)

Awesome Alex Part here...

Riff5
4 times
|-------------------------------------------------------------------|
|-------------------------------------------------------------------|
|----------------6-5-2-----------------------------66543----66543---|
|---------6-5-2---------9-8-6--8-7-5---------6-5-2------6543------6-|
|-------------------------------------------------------------------|
|-0-0-0-0----------------------------0-0-0-0------------------------|

Riff6
|----------------------------------------------------------|
|----------------------------------------------------------|
|---------------------------774----------------------------|
|--6"------6"------------774----7"--6"-------6"------------|
|----5"...---5"-4"-5"------------------5"...---5"-4"-5"----|
|---------------------5"--------------------------------5"-|

_____________1º________________ ____________2º_____________
|------------------------------|---------------------------|
|---------6"-------------------|------6"-------------------|
|----774----7"0"6"-------------|--------7"0"6"-------------|
|-774--------------7"0"6"------|-774-----------7"0"6"------|
|-------------------------5"...|----------------------5"---|
|------------------------------|---------------------------|

Repeat Riff5 2 times (end with this part below)
|-----------------------|
|-----------------------|
|-66543-----------------|
|------6543-------------|
|----------6543---------|
|--------------6p3-000--|

Repeat Riff4
Repeat Riff1 (Pat O'Brien Solo)
Repeat Riff2

Riff7 (Repeat till song fade out with solo) - (Jack Owen Solo)
|---------------------------------------------------------------------|
|---------------------------------------------------------------------|
|---------------------------------------------------------------------|
|---------8\12-12/11-11/8---8/6---6/5---------------------------------|
|---------------------------------------------------------------------|
|-000-0-0-6\10-10/9--9/-6-6-6/4-4-4/3-*0-0-0-0-0-0-0-0-*0-0-0-0-0-0-0-|

|---------------------------------------------------------------------|
|---------------------------------------------------------------------|
|---------------------------------------------------------------------|
|---------8\12-12/11-11/8---------------------------------------------|
|---------------------------------------------------------------------|
|-000-0-0-6\10-10/9--9/-6--[3h6p3]--*0-0-0-0-0-0-0-*0-0-0-0-0-0-0-----|

End Of Song.
comments
print report bad tab
I want to post or [tab]
guest
You may want to rate the tab now too:
select rating
Please do not post tabs as comments. Select "correction" instead!