Oops, an error
Loading. Please wait.

Unite The Dead Tab

373 views 1 this week
no commentswrite comment
1 2 3 4 5
please rate
add to favorites
launch autoscroll
font size
0
reset
how to read this tab
guitar tuner
Autoscroll
slow
fast
+/-
esc
set tempo
stop
Help us to improve Ultimate-Guitar.com Take our survey!
×
BAND: CANNIBAL CORPSE
SONG: UNITE THE DEAD
ALBUM: GALLERY OF SUICIDE

TABBED BY: Bobby Rafuse (metal_music69@hotmail.com)

Tuning: Bb (3 steps down)

pm - palm mute
"  - tremolo pick
~  - vibrato
ah - artificial harmonic
/  - slide up to


*NOTE* This is just a rough draft of this
so it probably won't be 100Porrect but it's not
too bad. Let me know how this sounds okay guys. Thanx \m/


Riff 1a
|-------------------------------|
|-------------------------------|
|-------------------------------|
|-------------------------------|
|-6-7-8-6-8-9-2--3--4--2--4--5--|
|-4-5-6-4-6-7-0--1--2--0--2--3--|


Riff 1b
|--------------------------|
|--------------------------|
|--------------------------|
|--------------------------|
|--------------------------|
|-4-5-6-4-6-7-0-1-2-0-2-3--|


Riff 2a
|--------------------------|
|--------------------------|
|--------------------------|
|--------------------------|
|-----7-----6-----5---1----|
|-0-0---0-0---0-0---0---3--|
pm. .   . .   . .   .


Riff 2b
|----------------------|
|----------------------|
|----------------------|
|----------------------|
|-----7-----6-2--3--4--|
|-0-0---0-0---0--1--2--|
pm. .   . .   .


Riff 2c
|-------------------------------|
|-------------------------------|
|-------------------------------|
|-------------------------------|
|-----7-----6-2--3--4--2--4--5--|
|-0-0---0-0---0--1--2--0--2--3--|
pm. .   . .   .        .


Chorus a (Fucking the zombie whore...)
|----------------------|
|----------------------|
|----------------------|
|----------------------|
|-6-7-8-6-8-9-2--3--4--|
|-4-5-6-4-6-7-0--1--2--|
pm            .


Chorus b 
|-------------------------------|
|-------------------------------|
|-------------------------------|
|-------------------------------|
|-6-7-8-6-8-9-2--3--4--2--4--5--|
|-4-5-6-4-6-7-0--1--2--0--2--3--|
pm            .        .


Riff 3a (Gifted with speech...)
|---------------------------|
|---------------------------|
|---------------------------|
|--------------ah-----------|
|--------------2~--2--3--4--|
|-6"---------------0--1--2--|
pm.                .


Riff 3b
|------------------------------------|
|------------------------------------|
|------------------------------------|
|--------------ah--------------------|
|--------------2~--2--3--4--2--4--5--|
|-6"---------------0--1--2--0--2--3--|
pm.                .        .


Fill 1
|-------------------------------------|
|-------------------------------------|
|-------------------------------------|
|-------------------------------------|
|-2--3--4--2--4--5--2--5--7--2--7--8--|
|-0--1--2--0--2--3--0--3--5--0--5--6--|


Riff 4
|--------------------------|
|--------------------------|
|--------------------------|
|--------------------------|
|-2/3/4---4/5--/5/7--/7/8--|
|-0/1/2-0/2/3-0/3/5-0/5/6--|


Riff 5 (unsure on this one)
|--------------------|
|--------------------|
|--------------------|
|--------------------|
|-------------4433---|
|-1--44331-1------1--|
pm.        .

  There. I think that's all the riffs you really need in this song.
Sorry about no solo but I can't play it plus I don't have the right effects
to get that sound.  But anyway, here it is. send me some feedback in the forum
or my email.  \m/
Suggest correction
What's this?
You can suggest a correction to this tab. Community and Mods will review your correction and vote to approve or reject it.
comments
We did not receive enough feedback on this tab! Please rate:
print report bad tab
1 2 3 4 5
guest
You may want to rate the tab now too:
select rating
Please do not post tabs as comments. Select "correction" instead!