Oops, an error
Loading. Please wait.

Unleashing The Bloodthirsty Tab

version 1
version 1

Whole song

Interactive

9,707 views 12 this week
5 commentsread comments
1 2 3 4 5
excellent!
x 4
add to favorites
launch autoscroll
font size
0
reset
how to read this tab
guitar tuner
Tab Pro tools
  • play this tab
  • loop segment
  • change instrument
  • show fretboard
  • metronome
×
Best way to learn
"Unleashing The Bloodthirsty"
Autoscroll
slow
fast
+/-
esc
set tempo
stop
Contributor
Band:  Cannibal Corpse
Album: Bloodthirst
Song:  Unleashing the Bloodthirsty

Transcribed By: Alexander Bruun
Email:          Alex_in_flame@hotmail.com

.  - palm mute           /  - slide up to
\  - slide down to       ~  - vibrato
h  - hammer on           b  - Bend
p  - pull off            Suffixes for bend
t  - tap                 f  - full bend    h - half bend
ph - pinched harmonic    q  - quarter bend t - tap bend
*  - see comment         ^  - Hold bend    r release bend
x  - Stuccatto           ~  - vibrato bend
,  - slight palm mute    () - ghost note, sustained note
"  - tremolo note        <> - Trill

TUNING: Bb Eb Ab Db Gb Bb

Intro Riff
(0:00)

|----------------------------      -----------------------------------|
|----------------------------      -----------------------------------|
|----------------------------      -----------------------------------|
|----------------------------      -5--9-8---5--9-8---5--9-8---5--9-8-|
|7------7------7------7------      -5--9-8---5--9-8---5--9-8---5--9-8-|
|0------0------0------0------      -3--7-6---3--7-6---3--7-6---3--7-6-|
                                    .  . .   .  . .   .  . .   .  . .
Intro Riff Ending
(0:13)
Left Channel       Right Channel
------------------ -------------||
------------------ -------------||
------------------ -------------||
------------------ -9-----------||
-7777777777777777- -7-----------||
------------------ -0-----------||


Rhythm Fig. 1
(0:15)
Left Channel   4 times with each ending    1st, 3rd time  2nd, 4th time
|----------------------------------------- ------------- ------------------|
|----------------------------------------- ------------- ------------------|
|----------------------------------------- ------------- ------------------|
|----------------------------------------- -----8------- ------11----------|
|----4--------10---------7--------4------- -4/7---7---7- -7/10----10----10-|
|0-3---6-0--9----12--0-6---9--0-3---6-0-3- ---------9--- ------------12----|
 . .   . .       .   . .   .  . .   . . .         . . .           .  .  .


Right Channel                              1st time      2nd, 3rd time
|----------------------------------------- ------------- ------------------|
|----------------------------------------- ------------- ------------------|
|----------------------------------------- ------------- ------------------|
|----------------------------------------- -----8------- ------11----------|
|----4--------10---------7--------4------- -4/7---7---7- -7/10----10----10-|
|0-3---6-0--9----12--0-6---9--0-3---6-0-3- ---------9--- ------------12----|
 . .   . .       .   . .   .  . .   . . .         . . .           .  .  .

4th time
-------------------||
-------------------||
-------------------||
-------14----------||
-10/13----13----13-||
-------------15----||
          .  .  .

Riff 1
(0:29)
Left Channel
|---------------------------------------------------------------------------------|
|---------------------------------------------------------------------------------|
|---------------------------------------------------------------------------------|
|-------5/12--11-----------------3---------6--------------------------------------|
|7--------------------------5-4--1----5-4--4-----------666666-777777--------------|
|0------3/10--9---6tr9----0-3-2-----0-3-2-----0-333333---------------666666666666-|
                          . . .     . . .     .

Right Channel
|---------------------------------------------------------------------------------|
|---------------------------------------------------------------------------------|
|---------------------------------------------------------------------------------|
|-------5/12--11-----------------3---------6-----------888888-555555--------------|
|7--------------------------5-4--1----5-4--4-------------------------444444444444-|
|0------3/10--9---6tr9----0-3-2-----0-3-2-----0-666666----------------------------|
                          . . .     . . .     .

Riff 1A

Left Channel
------------------------------------------------------||
------------------------------------------------------||
------------------------------------------------------||
--------5/9--8-------------5-4-5--9-8-5--5/8---5------||
7-----------------------------------------------------||
0-------3/7--6---3tr6------3-2-3--7-6-3--3/6---3-2tr3-||

Right Channel
------------------------------------------------------||
------------------------------------------------------||
------------------------------------------------------||
-------5/12--11------------5-4-5--9-8-5--5/8---5------||
7-----------------------------------------------------||
0------3/10--9---6tr9------3-2-3--7-6-3--3/6---3-2tr3-||


Riff 2
(0:44)
Both Guitars
|-------------------------------------------------------||
|-------------------------------------------------------||
|-------------------------------------------------------||
|-------------------------------------------------------||
|----4----PH--------4----PH-------4----PH-------4----PH-||
|0-3---6--3-----0-3---6--3----0-3---6--3----0-3---6--3--||
 . .   .        . .   .       . .   .       . .   .

Rhythm Fig. 1
(0:48)
Left Channel   4 times with each ending    1st, 3rd time  2nd, 4th time
|----------------------------------------- ------------- ------------------|
|----------------------------------------- ------------- ------------------|
|----------------------------------------- ------------- ------------------|
|----------------------------------------- -----8------- ------11----------|
|----4--------10---------7--------4------- -4/7---7---7- -7/10----10----10-|
|0-3---6-0--9----12--0-6---9--0-3---6-0-3- ---------9--- ------------12----|
 . .   . .       .   . .   .  . .   . . .         . . .           .  .  .


Right Channel                              1st time      2nd, 3rd time
|----------------------------------------- ------------- ------------------|
|----------------------------------------- ------------- ------------------|
|----------------------------------------- ------------- ------------------|
|----------------------------------------- -----8------- ------11----------|
|----4--------10---------7--------4------- -4/7---7---7- -7/10----10----10-|
|0-3---6-0--9----12--0-6---9--0-3---6-0-3- ---------9--- ------------12----|
 . .   . .       .   . .   .  . .   . . .         . . .           .  .  .

4th time
-------------------||
-------------------||
-------------------||
-------14----------||
-10/13----13----13-||
-------------15----||
          .  .  .


Riff 1
(1:02)
Left Channel
|---------------------------------------------------------------------------------|
|---------------------------------------------------------------------------------|
|---------------------------------------------------------------------------------|
|-------5/12--11-----------------3---------6--------------------------------------|
|7--------------------------5-4--1----5-4--4-----------666666-777777--------------|
|0------3/10--9---6tr9----0-3-2-----0-3-2-----0-333333---------------666666666666-|
                          . . .     . . .     .

Right Channel
|---------------------------------------------------------------------------------|
|---------------------------------------------------------------------------------|
|---------------------------------------------------------------------------------|
|-------5/12--11-----------------3---------6-----------888888-555555--------------|
|7--------------------------5-4--1----5-4--4-------------------------444444444444-|
|0------3/10--9---6tr9----0-3-2-----0-3-2-----0-666666----------------------------|
                          . . .     . . .     .

Left Channel
------------------------------------------------------|
------------------------------------------------------|
------------------------------------------------------|
--------5/9--8-------------5-4-5--9-8-5--5/8---5------|
7-----------------------------------------------------|
0-------3/7--6---3tr6------3-2-3--7-6-3--3/6---3-2tr3-|


Right Channel
------------------------------------------------------|
------------------------------------------------------|
------------------------------------------------------|
-------5/12--11------------5-4-5--9-8-5--5/8---5------|
7-----------------------------------------------------|
0------3/10--9---6tr9------3-2-3--7-6-3--3/6---3-2tr3-|


Both Channels
-----------------------------------------------------|
-----------------------------------------------------|
-----------------------------------------------------|
-------5/12--11----------------------/8-5--------/8~-|
7----------------------------------------------------|
0------3/10--9---6tr9---5tr8---4tr7--/6-3--2tr3--/6~-|


--------------------------------------------------------------||
--------------------------------------------------------------||
--------------------------------------------------------------||
----------------------------5--9-8---5--9-8---5--9-8---5--9-8-||
7------7------7------7------5--9-8---5--9-8---5--9-8---5--9-8-||
0------0------0------0------3--7-6---3--7-6---3--7-6---3--7-6-||
                            .  . .   .  . .   .  . .   .  . .

Fill 1
(1:37)
Left Channel
|-------------------------||
|-------------------------||
|-------------------------||
|-------------------------||
|777777777777777777777777-||
|-------------------------||

Right Channel
|--------------------------------------||
|--------------------------------------||
|--------------------------------------||
|555555555555-888888-11-11-11-11-11-11-||
|--------------------------------------||
|--------------------------------------||


Rhythm Fig. 2
(1:39)
Both Channels
|----------------------------------- -----------------------------------|
|----------------------------------- -----------------------------------|
|----------------------------------- -----------------------------------|
|5/6--------8/9--------------------- 5/6--------8/9---------------------|
|3/4--------6/7--------5\4-5\4--5/8- 3/4--------6/7--------5\4-5\4--5/8-|
|----000000-----000000-3\2-3\2--3/6- ----000000-----000000-3\2-3\2--3/6-|
     ......     ...... . . . .           ......     ...... . . . .

----------------------------------- -----------------------------------|
----------------------------------- -----------------------------------|
----------------------------------- -----------------------------------|
5/6--------8/9--------------------- 5/6--------8/9---------------------|
3/4--------6/7--------5\4-5\4--5/8- 3/4--------6/7--------5\4-5\4--5/8-|
----000000-----000000-3\2-3\2--3/6- ----000000-----000000-3\2-3\2--3/6-|
    ......     ...... . . . .           ......     ...... . . . .


---------------------------------------------------------PH-----|
----------------------------------------------------------------|
---------------------------4/5---------------------------5h-----|
-------5/6-5/6---------5/6------------5/6-5/6--------5/6---(or)-|
777777-3/4-3/4--777777-3/4-----777777-3/4-3/4-777777-3/4-6h-----|
----------------------------------------------------------------|
......          ......         ......         ......


---------------------------------------------------------PH-----|
----------------------------------------------------------------|
---------------------------4/5---------------------------5h-----|
-------5/6-5/6---------5/6------------5/6-5/6--------5/6---(or)-|
777777-3/4-3/4--777777-3/4-----777777-3/4-3/4-777777-3/4-6h-----|
----------------------------------------------------------------|
......          ......         ......         ......


----------------------------------- -----------------------------------|
----------------------------------- -----------------------------------|
----------------------------------- -----------------------------------|
5/6--------8/9--------------------- 5/6--------8/9---------------------|
3/4--------6/7--------5\4-5\4--5/8- 3/4--------6/7--------5\4-5\4--5/8-|
----000000-----000000-3\2-3\2--3/6- ----000000-----000000-3\2-3\2--3/6-|
    ......     .....  . . . .           ......     ...... . . . .


----------------------------------- -----------------------------------|
----------------------------------- -----------------------------------|
----------------------------------- -----------------------------------|
5/6--------8/9--------------------- 5/6--------8/9---------------------|
3/4--------6/7--------5\4-5\4--5/8- 3/4--------6/7--------5\4-5\4--5/8-|
----000000-----000000-3\2-3\2--3/6- ----000000-----000000-3\2-3\2--3/6-|
    ......     ...... . . . .           ......     ...... . . . .


---------------------------------------------------------PH-----|
----------------------------------------------------------------|
---------------------------4/5---------------------------5h-----|
-------5/6-5/6---------5/6------------5/6-5/6--------5/6---(or)-|
777777-3/4-3/4--777777-3/4-----777777-3/4-3/4-777777-3/4-6h-----|
----------------------------------------------------------------|
......          ......         ......         ......


---------------------------------------------------------PH-----||
----------------------------------------------------------------||
---------------------------4/5---------------------------5h-----||
-------5/6-5/6---------5/6------------5/6-5/6--------5/6---(or)-||
777777-3/4-3/4--777777-3/4-----777777-3/4-3/4-777777-3/4-6h-----||
----------------------------------------------------------------||
......          ......         ......         ......


Riff 3
(2:08)
4 times
|--------------------------||
|--------------------------||
|--------------------------||
|6/9--------/11-9~-8~--PH--||
|4/7-------------------7h~-||
|----0--9p6-/9--7~-6~------||
     .


Riff 2
(2:15)
Both Channels
|-------------------------------------------------------||
|-------------------------------------------------------||
|-------------------------------------------------------||
|-------------------------------------------------------||
|----4----PH--------4----PH-------4----PH-------4----PH-||
|0-3---6--3-----0-3---6--3----0-3---6--3----0-3---6--3--||
 . .   .        . .   .       . .   .       . .   .

Riff 3
(2:19)
4 times
|--------------------------||
|--------------------------||
|--------------------------||
|6/9--------/11-9~-8~--PH--||
|4/7-------------------7h~-||
|----0--9p6-/9--7~-6~------||


Riff 2
(2:26)
Both Channels  4 times
|-------------------------------------------------------||
|-------------------------------------------------------||
|-------------------------------------------------------||
|-------------------------------------------------------||
|----4----PH--------4----PH-------4----PH-------4----PH-||
|0-3---6--3-----0-3---6--3----0-3---6--3----0-3---6--3--||
 . .   .        . .   .       . .   .       . .   .


Riff 4
(2:42)
Left Channel  4 times
|-------------------------------------||
|-------------------------------------||
|-------------------------------------||
|-------------------------------------||
|----4--------10---------7--------4---||
|0-3---6--0-9----12--0-6---9--0-3---6-||
 . .   .  . .    .   . .   .  . .   .

(2:46)
Right Channel  last 2 times
|----------------------------------------||
|----------------------------------------||
|----------------------------------------||
|----------------------------------------||
|----7---------13---------10---------7---||
|0-6---9--0-12----15--0-9----12--0-6---9-||
 . .   .  . .     .   . .    .   . .   .


Fill 2
(2:50)
|---------------||
|---------------||
|---------------||
|5--9-8--5--9-8-||
|5--9-8--5--9-8-||
|3--7-6--3--7-6-||


Rhythm Fig. 2  Over Solo
(2:52)
Both Channels
|----------------------------------- -----------------------------------|
|----------------------------------- -----------------------------------|
|----------------------------------- -----------------------------------|
|5/6--------8/9--------------------- 5/6--------8/9---------------------|
|3/4--------6/7--------5\4-5\4--5/8- 3/4--------6/7--------5\4-5\4--5/8-|
|----000000-----000000-3\2-3\2--3/6- ----000000-----000000-3\2-3\2--3/6-|
     ......     ...... . . . .           ......     ...... . . . .

----------------------------------- -----------------------------------|
----------------------------------- -----------------------------------|
----------------------------------- -----------------------------------|
5/6--------8/9--------------------- 5/6--------8/9---------------------|
3/4--------6/7--------5\4-5\4--5/8- 3/4--------6/7--------5\4-5\4--5/8-|
----000000-----000000-3\2-3\2--3/6- ----000000-----000000-3\2-3\2--3/6-|
    ......     ...... . . . .           ......     ...... . . . .


---------------------------------------------------------PH-----|
----------------------------------------------------------------|
---------------------------4/5---------------------------5h-----|
-------5/6-5/6---------5/6------------5/6-5/6--------5/6---(or)-|
777777-3/4-3/4--777777-3/4-----777777-3/4-3/4-777777-3/4-6h-----|
----------------------------------------------------------------|
......          ......         ......         ......

---------------------------------------------------------PH-----|
----------------------------------------------------------------|
---------------------------4/5---------------------------5h-----|
-------5/6-5/6---------5/6------------5/6-5/6--------5/6---(or)-|
777777-3/4-3/4--777777-3/4-----777777-3/4-3/4-777777-3/4-6h-----|
----------------------------------------------------------------|
......          ......         ......         ......


----------------------------------- -----------------------------------|
----------------------------------- -----------------------------------|
----------------------------------- -----------------------------------|
5/6--------8/9--------------------- 5/6--------8/9---------------------|
3/4--------6/7--------5\4-5\4--5/8- 3/4--------6/7--------5\4-5\4--5/8-|
----000000-----000000-3\2-3\2--3/6- ----000000-----000000-3\2-3\2--3/6-|
    ......     .....  . . . .           ......     ...... . . . .

----------------------------------- -----------------------------------|
----------------------------------- -----------------------------------|
----------------------------------- -----------------------------------|
5/6--------8/9--------------------- 5/6--------8/9---------------------|
3/4--------6/7--------5\4-5\4--5/8- 3/4--------6/7--------5\4-5\4--5/8-|
----000000-----000000-3\2-3\2--3/6- ----000000-----000000-3\2-3\2--3/6-|
    ......     ...... . . . .           ......     ...... . . . .


---------------------------------------------------------PH-----|
----------------------------------------------------------------|
---------------------------4/5---------------------------5h-----|
-------5/6-5/6---------5/6------------5/6-5/6--------5/6---(or)-|
777777-3/4-3/4--777777-3/4-----777777-3/4-3/4-777777-3/4-6h-----|
----------------------------------------------------------------|
......          ......         ......         ......


---------------------------------------------------------PH-----||
----------------------------------------------------------------||
---------------------------4/5---------------------------5h-----||
-------5/6-5/6---------5/6------------5/6-5/6--------5/6---(or)-||
777777-3/4-3/4--777777-3/4-----777777-3/4-3/4-777777-3/4-6h-----||
----------------------------------------------------------------||
......          ......         ......         ......


Riff 5
(3:06)
Left Channel all 4 times
Right Channel first 2 times        Left Channel Ending
|--------------------------------- -------------------------------||
|--------------------------------- -------------------------------||
|---------/17-17-----------/18-18- -18-18-18-18-18-18-18-18-18-18-||
|--------------------------------- -------------------------------||
|77777777-/15-15--77777777-/16-16- -16-16-16-16-16-16-16-16-16-16-||
|--------------------------------- -------------------------------||
 ........         ........

(3:10)
Right Channel last 2 times         Right Channel Ending
|--------------------------------- -------------------------------||
|---------/15-15-----------/16-16- -16-16-16-16-16-16-16-16-16-16-||
|--------------------------------- -------------------------------||
|---------/13-13-----------/14-14- -14-14-14-14-14-14-14-14-14-14-||
|77777777---------77777777-------- -------------------------------||
|--------------------------------- -------------------------------||
 ........         ........


Riff 1
(3:16)
Left Channel
|---------------------------------------------------------------------------------|
|---------------------------------------------------------------------------------|
|---------------------------------------------------------------------------------|
|-------5/12--11-----------------3---------6--------------------------------------|
|7--------------------------5-4--1----5-4--4-----------666666-777777--------------|
|0------3/10--9---6tr9----0-3-2-----0-3-2-----0-333333---------------666666666666-|
                          . . .     . . .     .

Right Channel
|---------------------------------------------------------------------------------|
|---------------------------------------------------------------------------------|
|---------------------------------------------------------------------------------|
|--------------------------------3---------6-----------888888-555555--------------|
|7------*\------------------5-4--1----5-4--4-------------------------444444444444-|
|0------*\----------------0-3-2-----0-3-2-----0-666666----------------------------|
                          . . .     . . .     .
The right channel hits the first chord, sustains for a second or two, than does
a pick slide from the end to beginning of the fretboard.


Left Channel
------------------------------------------------------||
------------------------------------------------------||
------------------------------------------------------||
--------5/9--8-------------5-4-5--9-8-5--5/8---5------||
7-----------------------------------------------------||
0-------3/7--6---3tr6------3-2-3--7-6-3--3/6---3-2tr3-||

Right Channel
------------------------------------------------------||
------------------------------------------------------||
------------------------------------------------------||
-------5/12--11------------5-4-5--9-8-5--5/8---5------||
7-----------------------------------------------------||
0------3/10--9---6tr9------3-2-3--7-6-3--3/6---3-2tr3-||


Riff 6
(3:31)
|----------------------------------------------------------------------||
|----------------------------------------------------------------------||
|----------------------------------------------------------------------||
|-------5/12--11--------------------------------/8--5--------8--11-----||
|7---------------------------------------------------------------------||
|0------3/10--9---6tr9------5tr8------4tr7------/6--3--2tr3--6--9------||


END
comments
print report bad tab
5 comments total. Showing first comments.
0 reply
bassmastabilljo wrote on August 10 2009, 09:44 pm

absolutely perfect! thank you!

0 reply
olivaaaa. wrote on September 24 2009, 04:01 pm

what tuning is this in? i need a name not some notes. cheers/

0 reply
AlexxxOnly wrote on September 24 2009, 05:37 pm

Bb Eb Ab Db Gb Bb

low as ****

I want to post or [tab]
guest
You may want to rate the tab now too:
select rating
Please do not post tabs as comments. Select "correction" instead!