Oops, an error
Loading. Please wait.

Wretched Spawn Tab

version 1
version 1

Whole song

Interactive

11,071 views 3 this week
no commentswrite comment
1 2 3 4 5
accurate
x 5
add to favorites
launch autoscroll
font size
0
reset
how to read this tab
guitar tuner
Autoscroll
slow
fast
+/-
esc
set tempo
stop
Help us to improve Ultimate-Guitar.com Take our survey!
×
Band:  (Cannibal Corpse)
Album: (The Wretched Spawn)
Song:  (The Wretched Spawn)

Copyright (c)  (Metal Blade) (2004)
Version 1.0 - (Oct 17, 2004)

Transcribed By: (Philip Mead)
Email:          (philkilla666@yahoo.com)


.  - palm mute           /  - slide up to
\  - slide down to       ~  - vibrato
h  - hammer on           b  - Bend
p  - pull off            Suffixes for bend
t  - tap                 f  - full bend    h - half bend
ph - pinched harmonic    q  - quarter bend t - tap bend
*  - see comment         ^  - Hold bend    r release bend
x  - Stuccatto           ~  - vibrato bend
,  - slight palm mute    () - ghost note, sustained note
"  - tremolo note        <> - Trill

Tunning: (low to high) A# D# G# C# F# A# 

  Intro Riff A

|-------------------------------------------------------------------|
|-------------------------------------------------------------------|
|-------------------------------------------------------------------|
|/8---------/5b-----------------------------------------------------|
|----2-2-2--------------8------------8-7-5--------------------------|
|/6--0-0-0--/3b----9-8-6---9-8-9-8-6--------------------------------|
     . . .         . . .   . . . . .
  Intro Riff B

|------------------------------|  Riff A and B once, than Riff A and C.
|------------------------------|                                
|------------------------------|             Than   Repeat      
|/8\--5-5-5-5-------2-2-2------|
|--------------2-2-------------|
|/6\--3-3-3-3--0-0--0-0-0------|
      . . .    . .    .
  Intro Riff C

|---------------------------|
|---------------------------|
|---------------------------|
|/8--5-5-5-5----------8---5-|
|-------------------7-------|
|/6--3-3-3-3--0-3/6-----6---|
     . . .       

  Figure 1   2X

(bend PH Up)
|--------------------------------------------------------|
|--------------------------------------------------------|
|--------------------------------------------------------|
|--ph--ph--------------------------ph---ph---------------|
|--5f---5f-------------------------5f---5f----------8----|
|0----0----0---0h3-p0---0h3-0----0----0----0--9-8-6---9-8|
                                              . . .   . .

|------------------------------------|
|------------------------------------|
|------------------------------------|
|--ph--ph----------------------------|
|--5---5---------8---------7---------|
|0---0---0-9-8-6---9-8-0-6---6-5-3---|
           . . .   . . . . . . . .



  End with this           RIff 1
|------------------------------|
|------------------------------|
|------------------------------|
|-------9-8----8tr9------------|
|8-7-5------10-------8"--5-4---|
|----------------------------6-|
 . . .                   . . .
  
   End Figure 1






  Figure 2

|--------------------|
|--------------------|
|--------------------|
|--------------------|
|8----5----8----5----|
|6-00-3-00-6-00-3-00-|
   ..   ..   ..   ..
   
|------------------------------|
|------------------------------|
|------------------------------|
|-------9-8----8tr9------------|
|8-7-5------10-------8"--5-4---|
|----------------------------6-|
 . . .                   . . .

|----------------------|
|----------------------|
|----------------------|
|----------------------|
|8----5----8/5-5---5-8-|
|6-00-3-00-6/3-3-0-3-6-|
   ..   ..       . . .
  
|------------------------------|
|------------------------------|
|------------------------------|
|-------9-8----8tr9------------|
|8-7-5------10-------8"--5-4---|
|----------------------------6-|
 . . .                   . . .

|--------------------|
|--------------------|
|--------------------|
|--------------------|
|8----5----8----5----|
|6-00-3-00-6-00-3-00-|
   ..   ..   ..   ..

|------------------------------|
|------------------------------|
|------------------------------|
|-------9-8----8tr9------------|
|8-7-5------10-------8"--5-4---|
|----------------------------6-|
 . . .                   . . .

|----------------------|
|----------------------|
|----------------------|
|----------------------|
|8----5----8/5-5---5-8-|
|6-00-3-00-6/3-3-0-3-6-|
   ..   ..       . . .

|---------------------|
|---------------------|
|---------------------|
|-------------8-------|
|8----5-----5-6-8-7-5-|
|6-00-3-00-03---6-5-3-|
   ..   .. .. . . . .
  

  End Figure 2




  Repeat the Intro
  Repeat Figure 1
  
(On repeat of Figure 1, the right  channel plays Fill 1)
  
  
  Repeat Figure 2
(After repeat of Figure 2 the left channel plays RIFF 1 and
 the right channel plays Fill 2)





Fill 1                           Fill 2

|-----------------------------| |-------------6tr7--|
|-----------------------------| |-------------------|
|--9---6-7---6tr7-------------| |--9---6-7----------|
|8---8-----8------------------| |6---8-----8--------|
|-----------------7"-4"-7"-4"-| |-------------------|
|-----------------------------| |-------------------|






  Figure 3


|--------------------| 
|--------------------| 
|--------------------|
|--------------------|
|8----5----8----5----| 
|60000300006000030000|
  .... .... .... ....

|------------------------------|
|------------------------------|
|------------------------------|
|-------9-8----8tr9------------|
|8-7-5------10-------8"--5-4---|
|----------------------------6-|
 . . .                   . . .

|--------------------| 
|--------------------| 
|--------------------|
|--------------------|
|8----5----8----5----| 
|60000300006000030000|
  .... .... .... ....

|------------------------------|
|------------------------------|
|------------------------------|
|-------9-8----8tr9------------|
|8-7-5------10-------8"--5-4---|
|----------------------------6-|
 . . .                   . . .

|--------------------| 
|--------------------| 
|--------------------|
|--------------------|
|8----5----8----5----| 
|60000300006000030000|
  .... .... .... .... 

|------------------------------|
|------------------------------|
|------------------------------|
|-------9-8----8tr9------------|
|8-7-5------10-------8"--5-4---|
|----------------------------6-|
 . . .                   . . .

|-------------------------------------| 
|-------------------------------------| 
|-------------------------------------|
|-------------------------------------|
|8----5----8----5----8----5----8----5-| 
|600003000060000300006000030000600003-|
  .... .... .... .... .... .... ....

|---------------------------------|
|---------------------------------|
|----6/3-----------8------------9-|
|----x-x-----8-----x------8-----x-|
|--5-4/1---5-6-8-7-6----5-6-8-7-7-|
|0-3-----0-3---6-5----0-3---6-5---|
 . .     . . . . .    . . . . .

|------------------------------------|
|------------------------------------|
|----------6-----------8-----------9-|
|----8-----x-----8-----x-----8-----x-|
|--5-6-8-7-4---5-6-8-7-6---5-6-8-7-7-|
|0-3---6-5---0-3---6-5---0-3---6-5---|
 . . . . .   . . . . .   . . . . .

|---------------------| 
|---------------------| 
|----6------8------9--| 
|----x------x------x--| 4X's
|--5-4----5-6----5-7--| 
|0-3----0-3----0-3----|
 . .    . .    . .
    

     End Figure 3




|----------|
|----------|
|9---------|
|xhold////-|
|7---------|
|----------|





  Figure 4

|---------------------------------------------------------|
|---------------------------------------------------------|
|----------------------------4----------------------------|
|8---------------------------2----------6-----------------|
|6-8-7-5----------8---------------------4-------------4h7-|
|--6-5-3-33333333-6-33333333---33333333--33333333-3h6-----|
         ........   ........   ........  ........

|-------------------------------------------------------------------|
|-------------------------------------------------------------------|
|-------------------------------------------------------------------|
|--------------------------555555555555-----------------------------|
|---------8-------------4h7--------------77776666-------------------|
|33333333-6-33333333-3h6---------------------------66665555---------|
 ........   ........                        

|-------------------------------------------------------------------|
|-------------------------------------------------------------------|
|----------------------4--------------------------------------------|
|----------------------2----------6---------------------------------|
|5----------8---------------------4--------------4h7----------------|
|3-33333333-6-33333333---33333333---33333333-3h6--------------------|
   ........   ........   ........   ........

|-------------------------------------------------------------------|
|-------------------------------------------------------------------|
|-------------------------------------------------------------------|
|---------------------------888888888888-5555-----------------------|
|---------9-------------7h10-------------------4444-6666------------|
|66666666-7-66666666-6h9----------------------------------6666------|
 ........   ........

|-------------------------------------------------------------------|
|-------------------------------------------------------------------|
|----------------------4--------------------------------------------|
|----------------------2----------6---------------------------------|
|5----------8---------------------4--------------4h7----------------|
|3-33333333-6-33333333---33333333---33333333-3h6--------------------|
   ........   ........   ........   ........

|-------------------------------------------------------------------|
|-------------------------------------------------------------------|
|-------------------------------------------------------------------|
|----------------------------55555555-------------------------------|
|---------8---------------4h7----------77776666---------------------|
|33333333-6-33333333-3h6-----------------------66665555-------------|
 ........   ........

|-------------------------------------------------------------------|
|-------------------------------------------------------------------|
|----------------------4--------------------------------------------|
|----------------------2----------6---------------------------------|
|5----------8---------------------4--------------4h7----------------|
|3-33333333-6-33333333---33333333---33333333-3h6--------------------|
   ........   ........   ........   ........

|-------------------------------------------------------------------|
|-------------------------------------------------------------------|
|-------------------------------------------------------------------|
|---------------------------888888888888-5555-----------------------|
|---------9-------------7h10------------------4444-6666-------------|
|66666666-7-66666666-6h9---------------------------------6666-------|
 ........   ........
  
   End Figure 4



                                            RIFF 2
|----------------------|-------------------------|
|----------------------|-------------------------|
|----------------------|-------------------------|
|8-----8-----8-----8---|8------8------8-----8----|
|x--2--x--2--x--2--x--2|x--22--x--22--x--22-x--22|
|6/-0--6/-0--6/-0--6/-0|6/-00--6/-00--6/-00-6/-00|
    .     .     .     .    ..     ..     ..    ..

|-------------------------------|
|-------------------------------|
|-------------------------------|
|8-------8-------8-------8------|
|x--222--x--222--x--222--x--222-|
|6/-000--6/-000--6/-000--6/-000-|
    ...     ...     ...     ...

|---------------------------------------|Play 4 times--|
|---------------------------------------|End with this-|
|---------------------------------------|--------------|
|8---------8---------8---------8----8---|-8b-----------|
|x---------x---------x---------x----x---|-x------------|
|6/-000000-6/-000000-6/-000000-6/00-6/00|-6b-----------|
    ......    ......    ......   ..   ..
  



    Repeat Figure 4 under solo



 End With This
|-----------------------------------------|---------------------------|
|-----------------------------------------|---------------------------|
|-----------------------------------------|---------------------------|
|------9-8----9tr8-----------/8--------5B-|-Bend till-----------------|
|8-7-5-----10------8"-5-4-------2-2-2-----|----it---------------------|
|-------------------------6--/6-0-0-0--3B-|--Screams------------------|
 . . .                . . .     . . .
Suggest correction
What's this?
You can suggest a correction to this tab. Community and Mods will review your correction and vote to approve or reject it.
comments
print report bad tab
guest
You may want to rate the tab now too:
select rating
Please do not post tabs as comments. Select "correction" instead!