Oops, an error
Loading. Please wait.

Wretched Spawn Tab

version 2
version 2

Whole song

Interactive

1,643 views 6 this week
no commentswrite comment
1 2 3 4 5
excellent!
x 1
add to favorites
launch autoscroll
font size
0
reset
how to read this tab
guitar tuner
Tab Pro tools
  • play this tab
  • loop segment
  • change instrument
  • show fretboard
  • metronome
Autoscroll
slow
fast
+/-
esc
set tempo
stop
Contributor
Difficulty
Tuning
intermediate
D# G# C# F# A# D#
Tabbed 05/08/2005 by Admin on Tabspedia


Artist: Cannibal Corpse
Album: The wretched spawn
Song: The wretched spawn


Tuning: (low to high) Bb Eb Ab Db Gb Bb


God damn Marino, thanks for doing the solo...Also thanks chris for

pointing out things that Pat did while playing the song, any help

is appreciated!!!



Intro Riff A
||-------------------------------------------||
||-------------------------------------------||
||-------------------------------------------||
||-5/8---------5f----------------------------||
||-3-x--2-2-2--x----------8------------8-7-5-||
||-3/6--0-0-0--3f---9-8-6---9-6--9-8-6-------||
        . . .       . . .   . .  . . .   . .


Intro Riff B
||---------------------------||  Riff A and B once, than Riff A and C.
||---------------------------||
||---------------------------||            Then   Repeat
||------------5--------------||
||-------------------7-----7-||
||-3/6--3-3-3---3-3-----3----||
        . . .   . .     .


Intro Riff C
||-------------------------||
||-------------------------||
||-------------------------||
||-8--------5-------8------||
||----5-5-5-------7-----10-||
||-6--3-3-3---3/9-----6----||
      . . .           ,


Figure 1   2X
||-----------------------------|------------------------|
||-----------------------------|------------------------|
||-----------------------------|------------------------|
||------ph---------------------|-------ph---------------|
||-ph---9f----------2--------2-|-ph----9f---------8-----|
||-7--0----0--3h6p3-0--3h6p3-0-|-7---0----0-9-8-6---9-6-|
                    .        .            . . . .   . .

|----------------------------------||
|----------------------------------||
|----------------------------------||
|------ph--------------------------||
|-ph---7---------8---------7-------||
|-7--0---0-9-8-6---9-8-9-6---6-5-3-||
         . . . .   . . . .   . . .

End with this

Riff 1
|-----------------------------------|
|-----------------------------------|
|-----------------------------------|
|------9-8----8h9p8h9p8-------------|
|8-7-------10-----------8-7---7-----|
|----9----------------------9-------|
     .                      .

End Figure 1


Figure 2


|--------------------|-----------------------------|----------------------|
|--------------------|-----------------------------|----------------------|
|--------------------|-----------------------------|----------------------|
|--------------------|------9-8----8h9p8h9p8-------|----------------------|
|8----5----8----5----|8-7-------10-----------8-7---|-8----11----8/5---5-6-|
|6-00-3-00-6-00-3-00-|----9----------------------9-|-6-00-9--00-6/3-0-3-4-|
   ..   ..   ..   ..      .                      .     ..    ..     . . .

|------------------------------|---------------------|
|------------------------------|---------------------|
|------------------------------|---------------------|
|-------9-8----8h9p8h9p8-------|---------------------|
|-8-7-------10-----------8-7---|-8----5----8----5----|
|-----9----------------------9-|-6-00-3-00-6-00-3-00-|
      .                      .     ..   ..   ..   ..

------------------------------|------------------------|
------------------------------|------------------------|
------------------------------|------------------------|
-------9-8----8h9p8h9p8-------|------------------------|
-8-7-------10-----------8-7---|-8----11----8/5-5---5-6-|
-----9----------------------9-|-6-00-9--00-6/3-3-0-3-4-|
     .                      .     ..    ..       . . .

|-------------------------||
|-------------------------||
|-------------------------||
|-----------------9-----6-||
|-8----11----8-11-7-8-7-4-||
|-6-00-9--00-6-9----6-5---||
    ..    .. . .  . . .


End Figure 2


Repeat the Intro

Repeat Figure 1


(On repeat of Figure 1, the right  channel plays Fill 1)


Repeat Figure 2

(After repeat of Figure 2 the left channel plays RIFF 1 and

the right channel plays Fill 2)


Fill 1                              Fill 2
1:24                                1:41
||------------------------------|| ||------------6h7p6h7p6-||
||------------------------------|| ||----------------------||
||--9-----6---6h7p6h7p6---------|| ||--9-----6-------------||
||6---8-6---8-------------------|| ||6---8-6---8-----------||
||----------------------8-7---7-|| ||----------------------||
||--------------------------9---|| ||----------------------||
      . .   .               .            . .   .



Figure 3
1:43
||----------------------------|--------------------------------|
||----------------------------|--------------------------------|
||----------------------------|--------------------------------|
||----------------------------|-------9-8----8h9p8h9p8---------|
||8------5------8------5------|-8-7-------10-----------8-7---7-|
||6-0000-3-0000-6-0000-3-0000-|-----9----------------------9---|
    ....   ....   ....   ....       .                      .


|------------------------------|--------------------------------|
|------------------------------|--------------------------------|
|------------------------------|--------------------------------|
|------------------------------|-------9-8----8h9p8h9p8---------|
|-8------11------8------5------|-8-7-------10-----------8-7---7-|
|-6-0000-9--0000-6-0000-3-0000-|-----9----------------------9---|
    ....    ....   ....   ....       .                      .


|-----------------------------|--------------------------------|
|-----------------------------|--------------------------------|
|-----------------------------|--------------------------------|
|-----------------------------|-------9-8----8h9p8h9p8---------|
|-8------5------8------5------|-8-7-------10-----------8-7---7-|
|-6-0000-3-0000-6-0000-3-0000-|-----9----------------------9---|
    ....   ....   ....   ....       .                      .


||----------------------------------------------------------------------|
||----------------------------------------------------------------------|
||-------------------------------------------------------6/3----------8-|
||-------------------------------------------------------x-x----------x-|
||-8------11------8------5------8------11------5-7-8-5-8-4/1--7-8-5-7-6-|
||-6-0000-9--0000-6-0000-3-0000-6-0000-9--0000-3-5-6-3-6------5-6-3-5---|
    ....    ....   ....   ....   ....    .... . . . . .      . . . .


1:59
|----------------------------------------------------||
|----------------------------------------------------||
|-----------9------------6------------8------------9-||
|-----------x------------x------------x------------x-||
|-5-7-8-5-8-7--5-7-8-5-8-4--5-7-8-5-8-6--5-7-8-5-8-7-||
|-3-5-6-3-6----3-5-6-3-6----3-5-6-3-6----3-5-6-3-6---||
  . . . . .    . . . . .    . . . . .    . . . . .


2:04
||----------------------||
||----------------------||
||-----6------8------9--||
||-----x------x------x--|| 4X
||---5-4----5-6----5-7--||
||-0-3----0-3----0-3----||
 . .    . .    . .


End Figure 3


2:11
||----------||
||----------||
||9---------||
||xhold////-||
||7---------||
||----------||


Figure 4


2:13, 3:20
Left Channel (second time both guitars)
||---------------------------------------------------------------|
||---------------------------------------------------------------|
||8--------------------------------------------------------------|
||8-8-------------------------9-----------6----------------------|
||6-8-7-5----------8----------7-----------4----------------0h4h7-|
||--6-5-3-33333333-6-33333333---33333333----33333333-0h3h6-------|
         ........   ........   ........    ........



2:13

Right Channel   First Time Only

||----------------------------------------------------------------||
||----------------------------------------------------------------||
||-8--------------------------------------------------------------||
||-8-8-------------------------9-----------6----------------------||
||-6-8-7-5----------8----------7-----------4----------------0h4h7-||
||---6-5-3----------6---------------------------------0h3h6-------||


2:18, 3:25
||-------------------------------------------------------------|
||-------------------------------------------------------------|
||-------------------------------------------------------------|
||------------------------------555555555555-------------------|
||------------------------0h4h7--------------77776666----------|
||-3333333333333333-0h3h6-----------------------------66665555-|
   ................


2:22 , 3:29
||----------------------------------------------------------|
||----------------------------------------------------------|
||----------------------------------------------------------|
||-----------------------9-----------6----------------------|
||-5----------8----------7-----------4----------------0h4h7-|
||-3-33333333-6-33333333---33333333----33333333-0h3h6-------|
   ........   ........   ........    ........


2:26, 3:34
|----------------------------------------------------------------|
|----------------------------------------------------------------|
|----------------------------------------------------------------|
|-------------------------------888888888888---------------------|
|------------------------0h7h10--------------7777-4444-6666------|
|-6666666666666666-0h6h9------------------------------------6666-|
  ................


2:30, 3:36
|---------------------------------------------------------|
|---------------------------------------------------------|
|---------------------------------------------------------|
|-----------------------9----------6----------------------|
|-5----------8----------7----------4----------------0h4h7-|
|-3-33333333-6-33333333---33333333---33333333-0h3h6-------|
    ........   ........   ........   ........


2:36, 3:41
|------------------------------------------------------------|
|------------------------------------------------------------|
|------------------------------------------------------------|
|---------------------------------55555555-------------------|
|----------8----------------0h4h7----------77776666----------|
|-33333333-6-33333333-0h3h6-------------------------66665555-|
  ........   ........


2:39, 3:45
|---------------------------------------------------------|
|---------------------------------------------------------|
|---------------------------------------------------------|
|-----------------------9-----------6---------------------|
|-5----------8----------7-----------4---------------0h4h7-|
|-3-33333333-6-33333333---33333333---33333333-0h3h6-------|
    ........   ........   ........   ........


2:42, 3:49
|----------------------------------------------------------------||
|----------------------------------------------------------------||
|----------------------------------------------------------------||
|-------------------------------888888888888---------------------||
|------------------------0h7h10--------------7777-4444-6666------||
|-6666666666666666-0h6h9------------------------------------6666-||
  ................


End Figure 4


2:47
RIFF 2
|----------------------|--------------------------|
|----------------------|--------------------------|
|----------------------|--------------------------|
|8-----8-----8-----8---|8------8------8-----8-----|
|x--2--x--2--x--2--x--2|x--22--x--22--x--22-x--22-|
|6/-0--6/-0--6/-0--6/-0|6/-00--6/-00--6/-00-6/-00-|
    .     .     .     .    ..     ..     ..    ..


--------------------------------|
--------------------------------|
--------------------------------|
-8-------8-------8-------8------|
-x--222--x--222--x--222--x--222-|
-6/-000--6/-000--6/-000--6/-000-|
    ...     ...     ...     ...


2:59                                     3:15
----------------------------------------|Play 4 times--|
----------------------------------------|End with this-|
----------------------------------------|--------------|
-8---------8---------8---------8----8---|-8b-----------|
-x---------x---------x---------x----x---|-x------------|
-6/-000000-6/-000000-6/-000000-6/00-6/00|-6b-----------|
    ......    ......    ......   ..   ..


Repeat Figure 4 under solo


3:21
Pat O'Brien Solo
|-24-23-21--20-19-17--21-20-18--18-17-15--19-18-16--15-14-12--16-15-13-|
|----------------------------------------------------------------------|
|----------------------------------------------------------------------|
|----------------------------------------------------------------------|
|----------------------------------------------------------------------|
|----------------------------------------------------------------------|

                                               nh
-14-13-11--15-14-12--11-10-8--12-11-9--8-7-5--(5~~~~)-|
------------------------------------------------------|
------------------------------------------------------|
------------------------------------------------------|
------------------------------------------------------|
------------------------------------------------------|


-----------------------------------------------------------------------|
--(5~~)--(7~~~~~)--(9~~~~~~)-(12~~~~~~~~)------------------------------|
-----------------------------------------------------13-15-16-14-16-17-|
----------------------------------------------13"-14"------------------|
------------------------------------------16"--------------------------|
-----------------------------------------------------------------------|


--------------------15-17-18-16-18-19-15-17-18-15-(19~)-|
--14-16-17-15-17-18-------------------------------------|
--------------------------------------------------------|
--------------------------------------------------------|
--------------------------------------------------------|
--------------------------------------------------------|


{}=21,24.
-------------------------------------------------------|
---------------------------------------20"-24"-20"-24"-|
-----------------{21212121242424242121}----------------|
---------20"-23"---------------------------------------|
-19"-22"-----------------------------------------------|
-------------------------------------------------------|


----------20-24-22-20-(19~~~~~~)-|
-20-22-24------------------------|
---------------------------------|
---------------------------------|
---------------------------------|
---------------------------------|


End With This


3:52
End Fill
|-----------------------------------------------|
|-----------------------------------------------|
|-----------------------------------------------|
|-------9-8----8h9p8h9p8----------5/8--------5B-|
|-8-7-------10-----------8-7---7--3/6-2-2-2-----|
|-----9----------------------9----3/6-0-0-0--3B-|
      .                      .        . . .


Thanks to thudord@yahoo.com


Legend:
.  - palm mute           /  - slide up to

\  - slide down to       ~  - vibrato

h  - hammer on           b  - Bend

p  - pull off            Suffixes for bend

t  - tap                 f  - full bend    h - half bend

ph - pinched harmonic    q  - quarter bend t - tap bend

*  - see comment         ^  - Hold bend    r release bend

x  - Stuccatto           ~  - vibrato bend

,  - slight palm mute    () - ghost note, sustained note

"  - tremolo note        <> - Trill
comments
We did not receive enough feedback on this tab! Please rate:
print report bad tab
1 2 3 4 5
I want to post or [tab]
guest
You may want to rate the tab now too:
select rating
Please do not post tabs as comments. Select "correction" instead!