Oops, an error
Loading. Please wait.

Zero The Hero Tab

version 3
version 3

Whole song

Interactive

294 views 1 this week
no commentswrite comment
1 2 3 4 5
please rate
add to favorites
launch autoscroll
font size
0
reset
how to read this tab
guitar tuner
Autoscroll
slow
fast
+/-
esc
set tempo
stop
Help us to improve Ultimate-Guitar.com Take our survey!
×
Contributor
Cannibal Corpse
Hammer Smashed Face EP
Zero the Hero (Black Sabbath cover)

.  - palm mute
\  - slide down to
/  - slide up to
h  - hammer on
p  - pull off
t  - tap
ph - pinch harmonic
~  - vibrato
b  - bend
r  - release bend
tr - trill
*  - comment

Tuning: Eb Ab Db Gb Bb Eb

Guitar I - Jack Owen
Guitar II - Bob Rusay



Figure 1A x4 (Guitar I)
|----------------------------------------------|* Bend the note
|-17b19r17----17b19r17----17b19r17----17b19r17-|  and add whammy
|----------------------------------------------|  bar when releasing
|----------------------------------------------|
|----------------------------------------------|
|----------------------------------------------|

Figure 1A x3 (Guitar II)   Figure 1A Ending x1 (Guitar II)
|---------------------|    |-----------------------|
|---------------------|    |-----------------------|
|---------------------|    |-----------------------|
|---------------------|    |-----------------------|
|-4----4----3--2----2-|    |-4----4----3--2----4-5-|
|-2----2----3--2----0-|    |-2----2----3--2----2-3-|



Figure 1B x4 (Guitar I)
|----------------------------------------------|* Bend the note
|-19b21r19----19b21r19----19b21r19----19b21r19-|  and add whammy
|----------------------------------------------|  bar when releasing
|----------------------------------------------|
|----------------------------------------------|
|----------------------------------------------|

Figure 1B x3 (Guitar II)   Figure 1B Ending x1 (Guitar II)
|---------------------|    |---------------------|
|---------------------|    |---------------------|
|---------------------|    |---------------------|
|---------------------|    |---------------------|
|-6----6----5--4----4-|    |-6----6----5--4------|
|-4----4----5--4----2-|    |-4----4----5--4------|



Figure 2 x2
|---------------------------------|
|---------------------------------|
|---------------------------------|
|---------------------------------|
|-----------------------0---------|
|-0-1-2-2-0-1-2-2-0-1-2---2-0-2-2-|
  . . . . . . . . . . .   . . . .



Figure 3 x2 (Guitar I)
|----------------------|
|----------------------|
|----------------------|
|----------------------|
|-----4----6----7----3-|
|-----2----4----5----3-|

Figure 3 x8 (Guitar II)
|---------------------------------|
|---------------------------------|
|---------------------------------|
|---------------------------------|
|-----------------------0---------|
|-0-1-2-2-0-1-2-2-0-1-2---2-0-2-2-|
  . . . . . . . . . . .   . . . .



Figure 4 x8
|---------------------------------|
|---------------------------------|
|---------------------------------|
|---------------------------------|
|-----------------------0---------|
|-0-1-2---0-1-2---0-1-2---2-0-2---|



Figure 5A x2
|-------------------------------------------|
|-------------------------------------------|
|-------------------------------------------|
|-------------------------------------------|
|-4--5--6----4--5--6----4--5--6--9--6--4--6-|
|-2--3--4----2--3--4----2--3--4--7--4--2--4-|

--------------------------------------------|
--------------------------------------------|
--------------------------------------------|
--------------------------------------------|
-4--5--4----2----2--4--6--------------------|
-2--3--4----2----0--2--4--------------------|



Figure 5B x2
|------------------------------------------------|
|------------------------------------------------|
|------------------------------------------------|
|------------------------------------------------|
|-4--5--6--6--4--5--6--6--4--5--6--9--6--4--6--6-|
|-2--3--4--4--2--3--4--4--2--3--4--7--4--2--4--4-|

-------------------------------------------------|
-------------------------------------------------|
-------------------------------------------------|
-------------------------------------------------|
-4--5--4----2----2--4--6-------------------------|
-2--3--4----2----0--2--4-------------------------|

Play Figure 2 x2
Play Figure 3 ( see above for number)
Play Figure 4 x8
Play Figure 5A x2
Play Figure 5B x2
Play Figure 2 x2
Play Figure 1A x3
Play Figure 1A Ending x1
Play Figure 1B x3
Play Figure 1B Ending x1
Play Figure 2 x2
Play Figure 2 x8 (Under solo 1)
Play Figure 3 (Under solo 2)
Play Figure 4 x8
Play Figure 5A x2
Play Figure 5B x2
Play Figure 2 (Music starts fading out)

DONE!
comments
We did not receive enough feedback on this tab! Please rate:
print report bad tab
1 2 3 4 5
I want to post or [tab]
guest
You may want to rate the tab now too:
select rating
Please do not post tabs as comments. Select "correction" instead!