Oops, an error
Loading. Please wait.

The Foggy Dew Tab

19 views 6 this week
no commentswrite comment
1 2 3 4 5
3 more votes to show rating
add to favorites
launch autoscroll
font size
0
reset
how to read this tab
guitar tuner
Autoscroll
slow
fast
+/-
esc
set tempo
stop
Help us to improve Ultimate-Guitar.com Take our survey!
×
Author
Difficulty
intermediate
Arranged by Frenibas (2015)

Original PDF: http://oldwhtman.awardspace.com/download.php?download_file=tab/foggy_dew_tab.pdf


e|-----------------5--------------------------------------5------------------|
B|----5-/--8---------------------------8--\--5-------------------------------|
G|------------------------------5------------------5---------------5---------|
D|------------------------7------------------------------------7-------------|
A|-----------------0--------------------------------------0------------------|
E|---------------------------------------------------------------------------|

e|------------------------------------0--------------------------------------|
B|--8-\--5------------3---------------------3-----0-------------------------0|
G|-------------5----------------0-----------------------0--------------------|
D|-------------------------0-------------------------------------2----0--2---|
A|-----------------------------------------------------------2---------------|
E|--------------------3---------------------------------0--------------------|

e|-------------------0-------------------------------------------------------|
B|-1---------------------3--\-1----------------------------------------------|
G|-------------2--------------------2----------------0---------0-------------|
D|------2--------------------------------------3-----------------------------|
A|-0-------------------------------------3-----------------------------------|
E|----------------------------------1--------------------1-------------------|

e|---------------------------------------------------------------------------|
B|------------------1-------------------------5-/--8-------------------------|
G|-2----------2---------2----------------------------------------------------|
D|------2--------------------2-----------------------------------------------|
A|-0---------------------------------0---------------------------------------|
E|---------------------------------------------------------------------------|

e|----------------------------------------------------0----------------------|
B|------------------------0--------------------1-----------------------------|
G|---------------------------------------0-----------------------------------|
D|---------------------------------2-----------------------------------------|
A|--0------------------------3-----------------------------------------------|
E|---------------------------------------------------------------------------|

e|-3--------------------1--0-------------------------------------------------|
B|--------------1-----------------3--------------3---------------------------|
G|---------0--------------------------------0-------0------------------------|
D|----2-------------------------------0-----------------0--------------------|
A|-3-------------------------------------------------------------------------|
E|--------------------------------3------------------------------------------|

e|-0-------------------------------0-----0--------8----7---------------------|
B|---------------------1----3------------1-----------------------------------|
G|------------0--------------------------2-----------------------------------|
D|------2--------2-----------------------------------------------------------|
A|-3-------------------------------------0-----------------------------------|
E|---------------------------------------------------------------------------|

e|-5---------------------------5---------------------------------------------|
B|-5--------8--\-5----8-------------------------5----------------------------|
G|-5--------------------------------------5---------------5------------------|
D|-----------------------------------7-------------7-------------------------|
A|-0---------------------------0---------------------------------------------|
E|---------------------------------------------------------------------------|

e|---------------------------------------|
B|-----------------------5--/--8---------|
G|---------------------------------------|
D|---------------------------------------|
A|---------------------------------------|
E|---0-----------------------------------|



************************************

| /  Slide up
| \  Slide down

************************************
Suggest correction
Give kudos to tab author, rate the tab!
1 2 3 4 5
comments
print report bad tab
guest
You may want to rate the tab now too:
select rating
Wanna post a correction for this tab? Suggest correction