Oops, an error
Loading. Please wait.

Merciless Tab

version 1
version 1

Whole song

by Cans
200 views 1 this week
no commentswrite comment
1 2 3 4 5
please rate
add to favorites
launch autoscroll
font size
0
reset
how to read this tab
guitar tuner
Tab Pro tools
  • play this tab
  • loop segment
  • change instrument
  • show fretboard
  • metronome
Autoscroll
slow
fast
+/-
esc
set tempo
stop
Contributor
GTR 2

INTRO:
E|------------------------------------------------------| Repeat 2x
B|------------------------------------------------------|
G|--5---------------------------------------------------|
D|--5--------------------------5------------------------|
A|--3--------------------------5------------------------|
E|-----------------------------3------------------------|


E|------------------------------------------------------| Repeat 2x
B|------------------------------------------------------|
G|--5---------------------------------------------------|
D|--5--------------------------5------------------------|
A|--3--------------------------5------------------------|
E|-----------------------------3---------3-1--1-4-3~-4~-|


RIFF 1:
E|-----------------------------------------------------------------| Repeat 2x
B|-----------------------------------------------------------------|
G|----------------------------------------------------------3------|
D|----------------------------------------------------3-----3------|
A|--333333-3-3-3-3-3-3-3-3-3-3-3-3-3-3----------------3-----1-1-1--|
E|-------------------------------------444444-4-4-4-4-1-1-1--------|
    ...... . . . . . . . . . . . . . . ...... . . . .   . .   . .
RIFF 2:
E|---------------------------------------------------------|
B|---------------------------------------------------------|
G|----------------------------------------------------3----|
D|----------------------------------------------------3----|
A|--333333-3-3-3-3-3-3-3-3-3-3-3-3-3-3----------------1----|
E|-------------------------------------444444-4-4-4-4------|
    ...... . . . . . . . . . . . . . . ...... . . . . 
RIFF 1:
E|-----------------------------------------------------------------| 
B|-----------------------------------------------------------------|
G|----------------------------------------------------------3------|
D|----------------------------------------------------3-----3------|
A|--333333-3-3-3-3-3-3-3-3-3-3-3-3-3-3----------------3-----1-1-1--|
E|-------------------------------------444444-4-4-4-4-1-1-1--------|
    ...... . . . . . . . . . . . . . . ...... . . . .   . .   . .
RIFF 3:
E|-----------------------------------------------------------------| 
B|-----------------------------------------------------------------|
G|----------------------------------------------------3------------|
D|----------------------------------------------------3------------|
A|--333333-3-3-3-3-3-3-3-3-3-3-3-3-3-3----------------1-1-1-1-1-1--|
E|-------------------------------------444444-4-4-4-4--------------|
    ...... . . . . . . . . . . . . . . ...... . . . .   . . . . .
Bridge:
E|---------------------------------------------------------------|
B|---------------------------------------------------------------|
G|-------------------------------------------------12------------|
D|--2-----------5--------6--------6--------8-------12-----00332--|
A|--2-----------5--------6--------6--------8-------10-0033-------|
E|--0-----------3--------4--------4--------6---------------------|
                                                      .........




CHORUS:
E|------------------------------------------------------| Repeat 2x
B|------------------------------------------------------|
G|--5-------------------------------------------3-------|
D|--5--------------------------6---------3------3-------|
A|--3--------------------------6---------3------1-------|
E|-----------------------------4---------1--------------|


RIFF 1 
RIFF 3
BRIDGE
CHORUS x2

SOLO:
E|----------------------------------------------------------------------|Then comes some more  
B|----------------------------------------------------------------------|chords that I'm confused
G|-7--------10-------5--------7--------7-------10--------10-/12---------|with.
D|-7--------10-------5--------7--------7-------10--------10-/12---5-----|
A|-5--------8--------3--------5--------5-------8---------8--/10---5-----|
E|----------------------------------------------------------------3-----|

After the solo:
E|------------------------------------------------------| 
B|------------------------------------------------------|
G|--5---------------------------------------------------|
D|--5--------------------------5---------3------5-------|
A|--3--------------------------5---------3------5-------|
E|-----------------------------3---------1------3-------|
                             
E|----------------------------------------------------------------| 
B|----------------------------------------------------------------|
G|--5-------------------------------------------------------------|
D|--5--------------------------5---------3------5-----------------|
A|--3--------------------------5---------3------5---------003344--|
E|-----------------------------3---------1------3-----0033--------|
                                                      ..........
CHORUS x6

OUTRO:
E|---------------------------------------|
B|---------------------------------------|
G|----------------------------------5----|
D|---5----3355-5----3355-5----3355-55----|
A|---55566-----55566-----55566-----53----|
E|---3---------3---------3---------3-----|
      ........  ........  ........
comments
We did not receive enough feedback on this tab! Please rate:
print report bad tab
1 2 3 4 5
I want to post or [tab]
guest
You may want to rate the tab now too:
select rating
Please do not post tabs as comments. Select "correction" instead!