Oops, an error
Loading. Please wait.

Merciless Tab

version 2
version 2

Whole song

by Cans
168 views 1 this week
no commentswrite comment
1 2 3 4 5
3 more votes to show rating
add to favorites
launch autoscroll
font size
0
reset
how to read this tab
guitar tuner
Autoscroll
slow
fast
+/-
esc
set tempo
stop
Help us to improve Ultimate-Guitar.com Take our survey!
×
Author
GTR 1

INTRO:
E|------------------------------------------------------| Repeat 2x
B|------------------------------------------------------|
G|--5---------------------------------------------------|
D|--5---5---6---3---5---6--3-5-5------------------------|
A|--3-3---3---3---3---3--------5---5---6----------------|
E|-----------------------------3-3---3---3-1--1-4-3~-4~-|
      .   .   .   .   .          .   .

E|------------------------------------------------------| Repeat 2x
B|------------------------------------------------------|
G|------------------------------------------------------|
D|--3---5---6---3---5---6--3-5--------------------------|
A|----3---3---3---3---3--------3---5---6----------------|
E|-------------------------------3---3---3-1--1-4-3~-4~-|
      .   .   .   .   .          .   .

verse:
E|---------------------------------------------------------| 
B|---------------------------------------------------------|
G|--------------------------------------------------3------|
D|--------------------------------------------3-----3------|
A|--333333-3-3-3-3-3-3-3-3-3-3----------------3-----1-1-1--|
E|-----------------------------444444-4-4-4-4-1-1-1--------|
    ...... . . . . . . . . . . ...... . . . .   . .   . .

E|---------------------------------------------------------|
B|---------------------------------------------------------|
G|---------------------------------------------------------|
D|--------------------------------------------3------------|
A|--333333-3-3-3-3-3-3-3-3-3-3----------------3------------|
E|-----------------------------444444-4-4-4-4-1------------|
    ...... . . . . . . . . . . ...... . . . .   

E|---------------------------------------------------------| 
B|---------------------------------------------------------|
G|--------------------------------------------------3------|
D|--------------------------------------------3-----3------|
A|--333333-3-3-3-3-3-3-3-3-3-3----------------3-----1-1-1--|
E|-----------------------------444444-4-4-4-4-1-1-1--------|
    ...... . . . . . . . . . . ...... . . . .   . .   . .

E|---------------------------------------------------------| 
B|---------------------------------------------------------|
G|--------------------------------------------3------------|
D|--------------------------------------------3------------|
A|--333333-3-3-3-3-3-3-3-3-3-3----------------1-1-1-1-1-1--|
E|-----------------------------444444-4-4-4-4--------------|
    ...... . . . . . . . . . . ...... . . . .   . . . . .

E|-----------------------------------------------------------------------------|
B|-------------------------8----7----8------8----7----8-----10----9----10/12~--|
G|--------------------6666-6-66-6-66-6-6666-6-66-6-66-6-8888-8-88-8-88--8------|
D|--2-----------5--------------------------------------------------------------|
A|--2-----------5--------------------------------------------------------------|
E|--0-----0-2-0-3--------------------------------------------------------------|
                      ....   ..   ..   ....   ..   ..   ....   ..   ..
CHORUS:
E|------------------------------------------------------| Repeat 2x
B|------------------------------------------------------|
G|--5---------------------------------------------------|
D|--5---5---6---3---5---6--3-5-5------------------------|
A|--3-3---3---3---3---3--------5---5---6----------------|
E|-----------------------------3-3---3---3-1--1-4-3~-4~-|
      .   .   .   .   .          .   .

E|---------------------------------------------------------| 
B|---------------------------------------------------------|
G|--------------------------------------------------3------|
D|--------------------------------------------3-----3------|
A|--333333-3-3-3-3-3-3-3-3-3-3----------------3-----1-1-1--|
E|-----------------------------444444-4-4-4-4-1-1-1--------|
    ...... . . . . . . . . . . ...... . . . .   . .   . .

E|---------------------------------------------------------| 
B|---------------------------------------------------------|
G|--------------------------------------------3------------|
D|--------------------------------------------3------------|
A|--333333-3-3-3-3-3-3-3-3-3-3----------------1-1-1-1-1-1--|
E|-----------------------------444444-4-4-4-4--------------|
    ...... . . . . . . . . . . ...... . . . .   . . . . .

E|-----------------------------------------------------------------------------|
B|-------------------------8----7----8------8----7----8-----10----9----10/12~--|
G|--------------------6666-6-66-6-66-6-6666-6-66-6-66-6-8888-8-88-8-88--8------|
D|--2-----------5--------------------------------------------------------------|
A|--2-----------5--------------------------------------------------------------|
E|--0-----0-2-0-3--------------------------------------------------------------|
                      ....   ..   ..   ....   ..   ..   ....   ..   ..

CHORUS:
E|------------------------------------------------------| Repeat 2x
B|------------------------------------------------------|
G|--5---------------------------------------------------|
D|--5---5---6---3---5---6--3-5-5------------------------|
A|--3-3---3---3---3---3--------5---5---6----------------|
E|-----------------------------3-3---3---3-1--1-4-3~-4~-|
      .   .   .   .   .          .   .

SOLO 

E|------------------------------------------------------|
B|------------------------------------------------------|
G|--5---------------------------------------------------|
D|--5---5---6---3---5---6--3-5-5------------------------|
A|--3-3---3---3---3---3--------5---5---6----------------|
E|-----------------------------3-3---3---3-1--1-4-3~-4~-|
      .   .   .   .   .          .   .

E|----------------------------------------------------| 
B|----------------------------------------------------|
G|--5-------------------------------------------------|
D|--5---5---6---3---5---6--3-5-5-----------------3355-|
A|--3-3---3---3---3---3--------5---5---6-----5566-----|
E|-----------------------------3-3---3---3-1----------|
      .   .   .   .   .          .   .       ........  

CHORUS x6

OUTRO:
E|----------------------------------------|
B|----------------------------------------|
G|-----------------------------------5----|
D|---5----3355-5----3355-5----3355-5-5----|
A|---55566-----55566-----55566-----5-3----|
E|---3---------3---------3---------3------|
      ........  ........  ........
Suggest correction
Give kudos to tab author, rate the tab!
1 2 3 4 5
comments
print report bad tab
guest
You may want to rate the tab now too:
select rating
Wanna post a correction for this tab? Suggest correction