Oops, an error
Loading. Please wait.

No Sabes A Donde chords

by Canseco
7 views 1 this week
no commentswrite comment
1 2 3 4 5
2 more votes to show rating
add to favorites
×
Save as Personal and add changes to this tab that will be seen only by you. Learn more ›
×
You can save this tab as Personal to edit and correct it or add notes. All changes will be seen only by you. Learn more »
launch autoscroll
font size
0
reset
transpose
0
reset
display chords
guitar tuner
edit
Autoscroll
slow
fast
+/-
esc
set tempo
stop
Author
Strumming
There is no strumming pattern for this song yet. and get +5 IQ
Que paso,
soy Antonio de Old Killers mejor conocido como Pía
está canción está muy sencilla,
así que no debería tener inconveniente alguno.
La afinación es Estándar.
En el riff hago referencia a una nota
entre dos paréntesis, el cual dicta
que en la primer repetición se marca y en el 2do ya no.
Es muy Fácil y empecemos.

Intro:

F# D#m B C#m x2


Riff x2

E----------------------------------
A----------------------------------
D----------------------------------
G------------------------6-6-6-----
B--7-7-7-6-6-6-6-4-4-4-4-------(4)-X2
e----------------------------------

E----------------------------------
A----------------------------------
D----------------------------------
G----------------------------------
B----------------------------------
e---6-4-6-6-9-6-4-4-6-6-9-6-4------


      F#                      D#m
Y te vas... corres sobre el Atrás...
                     B                C#
no sabes ni a dónde vas.. Así te perderás

         F#                   D#m
Y en tú casa todo te habla de mí…
                 B
prefieres mejor salir,
                   C#
distraerte es olvidar para ti

     F#               D#m
Y te vas a olvidar, pierdes tu lugar…
              B                            C#
pierdes tu lugar y te vas, y te vas, y te vas...
no sabes ni a dónde vas

F# D#m B C#m x2


Riff x1

E----------------------------------
A----------------------------------
D----------------------------------
G------------------------6-6-6-----
B--7-7-7-6-6-6-6-4-4-4-4-------(4)-X2
e----------------------------------

E----------------------------------
A----------------------------------
D----------------------------------
G----------------------------------
B----------------------------------
e---6-4-6-6-9-6-4-4-6-6-9-6-4------

    F#                   D#m
Y aquí nada es igual sin ti
                  B                 C#
no tengo a donde ir, no quiero ni salir.
         F#                 D#m
Porque aquí nada es lo que creí,
                   B        C#
el cielo azul es gris, para mi

     F#               D#m
Y te vas a olvidar, pierdes tu lugar…
              B                            C#
pierdes tu lugar y te vas, y te vas, y te vas...
no sabes ni a dónde vas

D#m B F# C# x2

solo

     F#               D#m
Y te vas a olvidar, pierdes tu lugar…
              B                            C#
pierdes tu lugar y te vas, y te vas, y te vas...
no sabes ni a dónde vas

F# D#m B C#

    F#               D#m
Y te vas a olvidar, pierdes tu lugar…
              B                            C#
pierdes tu lugar y te vas, y te vas, y te vas...
no sabes ni a dónde vas  x2

F#


El solo se los enseñare en vídeo demostración.
Apóyenos con un like a la página:
https://www.facebook.com/Old-Killers-491550620889158/
Si gustan una canción pídanla en el grupo.
Att: Old Killers

            
            
Suggest correction
Creating personal tab
Creating personal tab
You can edit any tab online and save it as your Personal.

You can edit, replace or remove any tab part or add personal notes – all changes will be seen only by you.

Personal tabs can be accessed anytime from any device, even offline.
Learn more »
Give kudos to tab author, rate the tab!
1 2 3 4 5
comments
print report bad tab
guest
You may want to rate the tab now too:
select rating
Wanna post a correction for this tab? Suggest correction