Oops, an error
Loading. Please wait.

11 12 bass

832 views 1 this week
1 commentread comment
1 2 3 4 5
2 more votes to show rating
add to favorites
×
Save as Personal and add changes to this tab that will be seen only by you. Learn more ›
×
You can save this tab as Personal to edit and correct it or add notes. All changes will be seen only by you. Learn more »
launch autoscroll
font size
0
reset
guitar tuner
edit
Autoscroll
slow
fast
+/-
esc
set tempo
stop
Author
Difficulty
-------------------------------------------------------------------------------
			     11,12 - Canterbury
-------------------------------------------------------------------------------

Tabbed By : Milo Larkin
e-mail:  milo.larkin@hotmail.co.uk

Tuning: EADG

Verse:

G|---------------------------------------------------------------------------|
D|---------------------------------------------------------------------------|
A|---------------------------------------------------------------------------|
E|-12/--3--33--33--333--5-55--55-555-----------------------------------------|

G|----9--------9---------9--------9------|
D|------7-9------7-9-------7-9------7-9--| x2
A|--7--------7---------7--------7--------|
E|---------------------------------------|

G|---------------------------------------------------------------------------|
D|---------------------------------------------------------------------------|
A|---------------------------------------------------------------------------|
E|--3--33--33--333--5--55--55--55--7--3--33--33--333--5--55--55--55555-------|

Chorus:

G|---------------------------------------------------------------------------|  |
D|---------------------------------------------------------------------------|  |
A|---7--7--7--7----7--7--7--7------------------------------------------------|  | 
E|--x--x--x--x----x--x--x--x-----77--x7--x7--x7--77--x7--x7--x7--------------|   \
                                                                                   x2
G|---------------------------------------------------------------------------|   /
D|---------------------------------------------------------------------------|  |
A|---------------------------------------------------------------------------|  |
E|--8-0--8-0--8-0--8-0----8-0--8-0--8-0--8-0---------------------------------|  |

End Chorus with:

G|---------------------------------------------------------------------------|
D|---------------------------------------------------------------------------|
A|---------------------------------------------------------------------------|
E|--7-0--7-0--7-0--7-0----5-0--5-0--3-0--2-0---------------------------------|

2nd Verse:

G|---------------------------------------------------------------------------|
D|---------------------------------------------------------------------------|
A|--------------------/7777--------------------------------------------------|
E|--0--0--0--0--0--0---------------------------------------------------------|

G|---------------------------------------------------------------------------|
D|---------------------------------------------------------------------------|
A|---------------------------------------------------------------------------|
E|--0--0--0--0--0--0---7777--------------------------------------------------|

G|---------------------------------------------------------------------------|
D|---------------------------------------------------------------------------|
A|---------------------------------------------------------------------------|
E|--3--33--33--333--5-55--55-555---------------------------------------------|

G|----9--------9---------9--------9------|
D|------7-9------7-9-------7-9------7-9--| x2
A|--7--------7---------7--------7--------|
E|---------------------------------------|

G|---------------------------------------------------------------------------|
D|---------------------------------------------------------------------------|
A|---------------------------------------------------------------------------|
E|--3--33--33--333--5--55--55--55--7--3--33--33--333--5-5-5-5-5-5-5----------|

2nd Chorus:

G|---------------------------------------------------------------------------|
D|---------------------------------------------------------------------------|
A|---7--7--7--7----7--7--7--7------------------------------------------------|
E|--x--x--x--x----x--x--x--x-----77--x7--x7--x7--77--x7--x7--x7--------------|

G|---------------------------------------------------------------------------|
D|---------------------------------------------------------------------------|
A|---------------------------------------------------------------------------|
E|--8-0--8-0--8-0--8-0----8-0--8-0--8-0--8-0---------------------------------|

Same as last time, end chorus with:
G|---------------------------------------------------------------------------|
D|---------------------------------------------------------------------------|
A|---------------------------------------------------------------------------|
E|--7-0--7-0--7-0--7-0----5-0--5-0--3-0--2-0---------------------------------|

Break/Interlude

G|---------------------------------------------------------------------------|
D|---------------------------------------------------------------------------| x2 (2nd time 
A|---------------------------------------------------------------------------|  varies timing)  
E|--0-0--10-10--5-5--3-3--2-222-22--0-0-0------------------------------------|

G|---------------------------------------------------------------------------|  |
D|---------------------------------------------------------------------------|  |
A|---------------------------------------------------------------------------|  |
E|--0-0-0-0-0-0-0-0-0-0--\10-10-10-10-10-10-10--11-11-11-11-11-11-11-11------|   \
                                                                                   x2  
G|---------------------------------------------------------------------------|   /
D|---------------------------------------------------------------------------|  |
A|---------------------------------------------------------------------------|  |
E|--7-7-7-7-7-7-7-7-7-7---5-5-5-5-5-3-3-3-3-3--------------------------------|  |

On the second strum the open E really hard and let the 4th note ring:

G|---------------------------------------------------------------------------|
D|---------------------------------------------------------------------------|
A|---------------------------------------------------------------------------|
E|-0--0--0--0~--000000-------------------------------------------------------|

2nd Chorus:

G|---------------------------------------------------------------------------|  |
D|---------------------------------------------------------------------------|  |
A|---------------------------------------------------------------------------|  |
E|--0-0-0-0-0-0-0-0-0-0---77--x7--x7--x7--77--x7--x7--x7---------------------|   \
                                                                                   x2
G|---------------------------------------------------------------------------|   /
D|---------------------------------------------------------------------------|  |
A|---------------------------------------------------------------------------|  |
E|--8-0--8-0--8-0--8-0----8-0--8-0--8-0--8-0---------------------------------|  |


Finish with:
G|---------------------------------------------------------------------------|
D|---------------------------------------------------------------------------|
A|---------------------------------------------------------------------------|
E|--7-0--7-0--7-0--7-0----5-0--5-0--3-0--2-0---0~----------------------------|


| /  slide up
| \  slide down
| h  hammer-on
| p  pull-off
| ~  vibrato
| +  harmonic
| x  Mute note
===============================================================================
Suggest correction
Creating personal tab
Creating personal tab
You can edit any tab online and save it as your Personal.

You can edit, replace or remove any tab part or add personal notes – all changes will be seen only by you.

Personal tabs can be accessed anytime from any device, even offline.
Learn more »
Give kudos to tab author, rate the tab!
1 2 3 4 5
comments
print report bad tab
1 comment total.
+1 reply
lezahtherock 290 Dec 14, 2010 12:04 AM

Hello! I think there are a few bits you might have missed -

G|----9--------9---------9---------------|
D|------7-9------7-9-------7-9--------0--| x2
A|--7--------7---------7--------7-7------|
E|---------------------------------------|

Chorus bit is correct except for
"-77--x7--x7--x7--77--x7--x7--x7-" -> the second 77 should be x7

And chorus always ends with:
E |-7-7-7-7-7-7-7-7-5-5-5-5-3-3-3-3-|

2nd verse:
I play it /5555 on the A string both times, not /7777? That's what I hear..

And the start of the interlude goes
E |-0-0--10-10--5-5--3-3--2-2--2-2--1-1--1-1-|

E |-0-0--10-10--5-5--3-3--2-2--2-2--1--------|
(eleven, twelve!)


That's just what I hear and how I play it. Good tab you've done though!

guest
You may want to rate the tab now too:
select rating
Wanna post a correction for this tab? Suggest correction