Oops, an error
Loading. Please wait.

Broncas chords

by Caos
45 views 1 this week
no commentswrite comment
1 2 3 4 5
3 more votes to show rating
add to favorites
×
Save as Personal and add changes to this tab that will be seen only by you. Learn more ›
×
You can save this tab as Personal to edit and correct it or add notes. All changes will be seen only by you. Learn more »
launch autoscroll
font size
0
reset
transpose
0
reset
display chords
guitar tuner
edit
Autoscroll
slow
fast
+/-
esc
set tempo
stop
Strumming
There is no strumming pattern for this song yet. and get +5 IQ
(esta es una correccion de la anterior con todo respeto a 
mi colega que la transcribio anteriormente)


C#m
Me he levantado 
       A
con ganas de vivir 
B
 pues ya estoy harto 
        C#m
de broncas, si los demás 
         A
no me dejan existir 
B                   C#m
que se vayan a la goma.

C#m                     A
En el trabajo, en la escuela 
            B
me da igual, para acabar a 
      C#m
mi novia, me he decidido a 
A
tirarlo todo a león 
B                       G#
aunque se me arme la bolaaaaaaaaaaaaaaaa.

Coro. 

                       C#m
Pues ya estoy harto de broncas-bron 
           A              
cabrón-cas brón-ca broncas 
B                        C#m                         
yo ya estoy harto de broncas 
                       A
broncas-broncabron-cas bron-ca
       B                     G#
broncas yo ya estoy harto de broncaaaaaaaaaassss

'se repite la misma figura de la canción'

Mi coche tiene complejo 
de autobús, se me para 
en cada esquina cuando mi 
nena me viene a visitar, 
me tuerce con la vecina. 

Tengo mil deudas y 
nada pa' pagar 
tengo a dieta mi cartera 
mi fiel amigo se llama firulais 
se lo llevó la perrera. 

 Coro  

'y despues'

E------------------------------------------------
B------------------------------------------------
G----6-6-6---4-6---------------------------------
D----6-6-6---4-6----7-7-7---6-7------------------
A----4-4-4---2-4----7-7-7---6-7------------------
E-------------------5-5-5---4-5------------------


E------------------------------------------------
B------------------------------------------------
G----6-6-6---4-6---------------------------------
D----6-6-6---4-6----7-7-7---6-7----6-------------
A----4-4-4---2-4----7-7-7---6-7----6-------------
E-------------------5-5-5---4-5----4-------------

Solo.

Coro

¿Sabes que güera? 

E-------------------------------
B-------------------------------
G----6-6-6-6-6------------------
D----6-6-6-6-6------------------
A----4-4-4-4-4------------------
E-------------------------------
ya estuvo.


Esta canción se la dedico a los integrantes de mi banda
LADO OSCURO  '¡¡¡¡¡¡¡Que no MUUEERRAAA LAAAAADDDDOOO 
OSSSSCCCCUUURRROOOO!!!!!!'
ATTE. Jaime guitarrista.
para cualquier aclaracion o correccion escribanme a 
elmalditto@

            
            
Suggest correction
Creating personal tab
Creating personal tab
You can edit any tab online and save it as your Personal.

You can edit, replace or remove any tab part or add personal notes – all changes will be seen only by you.

Personal tabs can be accessed anytime from any device, even offline.
Learn more »
Give kudos to tab author, rate the tab!
1 2 3 4 5
comments
print report bad tab
guest
Wanna post a correction for this tab? Suggest correction