Oops, an error
Loading. Please wait.

La Planta Bass Tab

version 1
version 1

Whole song

Interactive

by Caos
11,688 views 9 this week
no commentswrite comment
1 2 3 4 5
2 more votes to show rating
add to favorites
launch autoscroll
font size
0
reset
guitar tuner
Autoscroll
slow
fast
+/-
esc
set tempo
stop
Help us to improve Ultimate-Guitar.com Take our survey!
×
Author
Difficulty
aqi esta el bajoe original de la rola bueno chida y hasta luegOo

TqMm rubi !!!!


 situpiensasquemehazrotolamaceta

G--------------------------------------------------------|
D--------------------------------------------------------|
A---------------------------------3----------------------|
E--------------------------------------------------------|

notepreocupes   yameacostumbrearegarlas

G--------------------------------------------------------------|
D--------------------------------------------------------------|
A-----------2-----------------------------------3-2--0---------|
E-----------------------------------------0-------------3-2-0--|

 yyatemeestabaspasandodeveeerde    mañanatesecas
G-------------------------------------------------------------|
D-------------------------------------------------------------|
A------------------------------3-----------------2------------|
E-------------------------------------------------------------|

 yomeconsigootraplanta

G--------------------------------------------------------------|
D--------------------------------------------------------------|
A-----------------------3 2 0 ---------------------------------|
E------------------------------3 2 0---------------------------|

RIFF 1 peroqueseadesertica

G---------------------------------------------------------------------------|
D----------------------2--4--------4---7------------------------------------|
A------------------73---------5----------7----3-2-0-----------3-2-0---------|
E----------------------------------------------------3-2-0-----------3-2-0--|

 asisilariegononomepreocupo     porquevaeeeestar   muy  bien

G--------------------------------------------------------------------------|
D--------------------------------------------------------------------------|
A-------------333-----------55---------------------------------------------|
E-----------------------------------------------3----2----0000-------------|

 asisilariegono     yanomeapuro    comola regue contigo

G--------------------------------------------------------------------------|
D--------------333-------------5555----------------------------------------|
A-------------------------------------------------------3 2 0--------------|
E--------------------------------------------------------------------------|

 yqueunsolojardinero   recojaelfruto   nocomotuqueya  estabas recogida

G-------------------------------------------------------------------------|
D-------------------------------------------------------------------------|
A------------------333--------------555-----------------------------------|
E----------------------------------------------3-----------2------000000--|

 puesbuenasuerte aversinose espina

G-------------33---------55--------777777---------------------------------|
D-------------------------------------------------------------------------|
A-------------------------------------------------------------------------|
E-------------------------------------------------------------------------|

 peroqueseadesertica      ohhh siiii     desertica   X 2 VECES

G-------------------------------------------------------------------------|
D-------------------------------------------------------------------------|
A-------------------333--------------555------------7777------------------|
E-------------------------------------------------------------------------|

 asisilariego   no nome  preocupo    PORQUE VA ESTAR MUY BIEN

G-------------------------------------------------------------------------|
D----------------------------------4------7-------------------------------|
A------------73--2----4-------5--------------7----------------------------|
E-------------------------------------------------3----2----00000---------|

 ASISILARIEGONO   NOMEPREOCUPO    PORQUEVAESTAR  MUY  BIEN

G------------------------------------------------------------------------|
D------------------------------------------------------------------------|
A--------------333------------555----------------------------------------|
E---------------------------------------------3----2----0----------------|
Suggest correction
Give kudos to tab author, rate the tab!
1 2 3 4 5
comments
print report bad tab
guest
You may want to rate the tab now too:
select rating
Wanna post a correction for this tab? Suggest correction