Oops, an error
Loading. Please wait.

Safe And Sound Chords

version 1
version 1

Whole song

Interactive

421,823 views 603 this week
17 commentsread comments
1 2 3 4 5
x 223
add to favorites
launch autoscroll
font size
0
reset
transpose
0
reset
display chords
guitar tuner
Autoscroll
slow
fast
+/-
esc
set tempo
stop
Help us to improve Ultimate-Guitar.com Take our survey!
×
Author
-------------------------------------------------------------------------------
                             Safe and Sound - Capital Cities
-------------------------------------------------------------------------------
Tabbed by:FeelTheMusic2

Tuning:Standard

Chord Progression: F-C-Am-G
 

F                  C
I could lift you up 
        Am
I could show you what you want to see 
     G
and take you where you want to be 
 
F                   C
You could be my luck 
      Am
Even if the sky is falling down 
   G
I know that we'll be safe and sound 

F                    C
I could fill your cup 
            Am
You know my river won't evaporate
      G
This world we still appreciate 

F                   C
You could be my luck 
          Am
Even in a hurricane of frowns 
   G
I know that we'll be safe and sound 

F                    C
I could show you love 
     Am
In a tidal wave of mystery 
        G
You'll still be standing next to me 

F                   C
You could be my luck 
        Am
Even if we're six feet underground 
   G
I know that we'll be safe and sound


[Trumpet part for guitar]

e|--12----------------------------------------------------------------|
B|-------10-10-12-13-15---------12-13-15------------------------------|
G|-----------------------12-12----------------------------------------|
D|--------------------------------------------------------------------|
A|--------------------------------------------------------------------|
E|--------------------------------------------------------------------|

e|--12--------------------------15-13-12------------------------------|
B|------10-10-12-13-15------------------------------------------------|
G|-----------------------12-12----------------------------------------|
D|--------------------------------------------------------------------|
A|--------------------------------------------------------------------|
E|--------------------------------------------------------------------|

http://capitalcitiesmusic.com/ 
Suggest correction
comments
print report bad tab
17 comments total. Showing first comments.
+14 reply
incubosity 1,573 Jul 10, 2013 08:55 PM

Great tab but here is the trumpet part corrected:

Trumpet part for guitar
e|--12----------10-12------------10-----12----------10-12-------15-13-12--|
B|-----10-12-13------------12-13-----------10-12-13-----------------------|
G|--------------------12-12-------------------------------12-12-----------|
D|------------------------------------------------------------------------|
A|------------------------------------------------------------------------|
E|------------------------------------------------------------------------|

+9 reply
janky-hoopty 31 Jul 29, 2013 03:56 PM

SECOND HALF OF LYRICS

I could show you love
In a tidal wave of mystery
You'll still be standing next to me

You could be my luck
Even if we're six feet underground
I know that we'll be safe and sound

We're safe and sound

Safe and sound
Safe and sound
Hold your ground
Safe and sound

I could lift you up
I could show you what you wanna see
And take you where you wanna be

You could be my luck
Even if the sky is falling down
I know that we'll be safe and sound

I could lift you up
I could show you what you wanna see
And take you where you wanna be

You could be my luck
Even if the sky is falling down
I know that we'll be safe and sound

We're safe and sound
We're safe and sound
We're safe and sound
We're safe and sound

Safe and sound
We're safe and sound
Safe and sound
We're safe and sound
Hold your ground
We're safe and sound
Safe and sound
We're safe and sound

+6 reply
pickstrut 10 Aug 09, 2013 05:54 PM

Try this!
e|--12----------------------------------12----------------------15-13-12--|
B|-----10-12-13-15-17------12-13-15--------10-12-13-15-17-----------------|
G|--------------------12-12-------------------------------12-12-----------|
D|------------------------------------------------------------------------|
A|------------------------------------------------------------------------|
E|------------------------------------------------------------------------|

guest
You may want to rate the tab now too:
select rating
Wanna post a correction for this tab? Suggest correction