Oops, an error
Loading. Please wait.

Believer chords

version 2
version 2

Whole song

  • Hey guys, the only real difference is the capo and... Show more
43 views 1 this week
1 commentread comment
1 2 3 4 5
2 more votes to show rating
add to favorites
×
Save as Personal and add changes to this tab that will be seen only by you. Learn more ›
×
You can save this tab as Personal to edit and correct it or add notes. All changes will be seen only by you. Learn more »
launch autoscroll
font size
0
reset
transpose
0
reset
display chords
guitar tuner
edit
Autoscroll
slow
fast
+/-
esc
set tempo
stop
About this tab version
Hey guys, the only real difference is the capo and the lead part, but at least its something. hope everyone enjoys. Was this info helpful? Yes No
Strumming
There is no strumming pattern for this song yet. and get +5 IQ
[Verse 1]
Bm              G       D           A
Eyes open, I'm floatin' off, take me away
Bm              G       D           A
You're reachin', I feel it, I can't be the same
Bm              G       
I'm a fuse soaked in gasoline
D               A
A beam of light for the world to see
Bm      D               A
Can't slow me down, no

[Chorus]
Bm      G       D       A
I, I wanna see the world on fire
Bm      G       D       A
I, I see you signal in the night
Bm              G
So I illuminate, I
D               
I'm jumping out in faith, I
A
I'm never hidin' this light away
Bm  G
I am more than a dreamer
D            A  (Bm G D)-----
I'm a believer              |
                            V
e|---2---2--5---|--------------|
B|-3---3------3-|--------------|
G|--------------|---2--2-0-----|
D|--------------|-4--------4-0-|
A|--------------|--------------|
E|--------------|--------------|

A             (Bm G D A)
I'm a believer
e|---2---2--0---|-0----0-------|
B|-3---3------2-|--------3-2-3-|
G|--------------|---2----0-----|
D|--------------|-4------------|
A|--------------|--------------|
E|--------------|--------------|

[Verse 2]
Bm              G       D       A
You're spirit, it sends me out into the fray
Bm              G       D       A
You go out before me, I'm never afraid
Bm                      G
I'm a fuse soaked in gasoline
D                       A
A beam of light for the world to see
Bm      G       D       A
Can't slow me down, no (slow me down)
Chorus
Bm      G       D       A
I, I wanna see the world on fire
Bm      G       D       A
I, I see you signal in the night
Bm              G
So I illuminate, I
D               A
I'm jumping out in faith, I
Bm      G       D       A
I'm never hidin' this light away
Bm      G       D       
I am more than a dreamer
A               (Bm G D A)
I'm a believer
 
e|---2---2--5---|--------------|
B|-3---3------3-|--------------|
G|--------------|---2--2-0-----|
D|--------------|-4--------4-0-|
A|--------------|--------------|
E|--------------|--------------|

A             (Bm G D A)
I'm a believer
e|---2---2--0---|-0----0-------|
B|-3---3------2-|--------3-2-3-|
G|--------------|---2----0-----|
D|--------------|-4------------|
A|--------------|--------------|
E|--------------|--------------|

            
            
Suggest correction
Creating personal tab
Creating personal tab
You can edit any tab online and save it as your Personal.

You can edit, replace or remove any tab part or add personal notes – all changes will be seen only by you.

Personal tabs can be accessed anytime from any device, even offline.
Learn more »
Give kudos to tab author, rate the tab!
1 2 3 4 5
comments
print report bad tab
1 comment total.
0 reply
EliPlaysGuitar 38 Jun 22, 2017 08:00 AM

hey everyone feel free to comment and rate I would really appreciate the feedback

guest
You may want to rate the tab now too:
select rating
Wanna post a correction for this tab? Suggest correction