Oops, an error
Loading. Please wait.

Coldfront Heatstroke chords

2,055 views 1 this week
1 commentread comment
1 2 3 4 5
1 last vote to show rating
add to favorites
×
Save as Personal and add changes to this tab that will be seen only by you. Learn more ›
×
You can save this tab as Personal to edit and correct it or add notes. All changes will be seen only by you. Learn more »
launch autoscroll
font size
0
reset
transpose
0
reset
display chords
guitar tuner
edit
Autoscroll
slow
fast
+/-
esc
set tempo
stop
Author
Strumming
There is no strumming pattern for this song yet. and get +5 IQ
If you have any suggestions or corrections for me email me at JTBennings@gmail.com.

Song: Coldfront Heatstroke
Band: Capital Lights
Album: Rhythm n’ Moves
Tuning: Standard (E,A,D,G,B,E)
Tabbed By: JTBennings

Chords:

   C#  A   B   E       F#
E|-0---0---0---0---x---|
B|-0---0---0---0---x---|
G|-6---2---4---9---3---|
D|-6---2---4---9---4---|
A|-4---0---2---7---4---|
E|-x---x---x---0---2---|


Intro: C#, A, B, B,

Verse 1:
  C#                   A   
I got a girl she’s the talk of the town
               B                            B
I’m scared of wavering but she’s scared of settling down
      C#                           A                              B
We’re one of a kind but there’s a catch I caught through the grapevine
                B                   C#                B
That she’s everything I’m not, no
 C#              A
She’s a pro and I’m a convict 
     B                   B            
Caught red handed trying to hold on
   C#                   A 
I got a loose hand cant get a grip
           B                         B
She’s on a power trip tripping on my weakness


Pre-chorus:  
 A                         B
Can’t stand still when I’m lighter then air
           C#                 B             
She better bid farewell there goner with the wind
A            B                       A
Hmm I know a girl like that when I’m in she’s out
                       B
And when I’m out she’s in


Chorus:
E                 B
She’s a coldfront giving me a heatstroke
C#               A           B
She’s a hit song ending on a weak note
A       C#         B
I go high she goes low
       A          B  
It’s a long rollercoaster ride
E                   B
She’s a saint with a smile on a Sunday
C#              A         B
Going out getting wild on a Monday
E       C#          A
Took two weeks to say hello
            A       B
Now I’m too weak to say goodbye

C#, A, B, B,


Verse 2: [Same as verse 1]
She was honey and I’m a bee
I started dying away when I was forced to sting
Buzzing around with no hope to heal
Until I dropped like a fly yeah she’s a true buzz kill


Pre-chorus:  
 A                         B
Can’t stand still when I’m lighter then air
           C#                    B             
You better bid farewell or I’m a goner with the wind
A          B                         
Hmm am I a guy like that
      A                      B
It’s easier said then making right ends meet in the end


Chorus:
E                 B
She’s a coldfront giving me a heatstroke
C#               A           B
She’s a hit song ending on a weak note
A       C#         B
I go high she goes low
       A          B  
It’s a long rollercoaster ride
E                   B
She’s a saint with a smile on a Sunday
C#              A         B
Going out getting wild on a Monday
E       C#          A
Took two weeks to say hello
            A       B
Now I’m too weak to say goodbye


Bridge:
F#                         A
I tried holding her close, she said she just needed more time
F#             A
So I let her go, suddenly I was the bad guy
F#                       A
I think it’s all just a game, she’s playing with my mind
F#                    A                  B            
Like a soap opera twist left me confused like

E|--0----0----------0---------0-----------0-----|
B|--0-------0----------0---------0-----------0--|
G|--1-------------------------------------------|
D|--2--2----------2---------2----------2--------|
A|--2----------2---------2----------2-----------|
E|--0-------------------------------------------|
    She forgot her lines in a scene that she wrote

E|-------0----------0---------0-----------0-----|
B|----------0----------0---------0-----------0--|
G|----------------------------------------------|
D|-----2----------2---------2----------2--------|
A|--0----------0---------0----------0-----------|
E|----------------------------------------------|
    Plays an evil villain, calls herself a hero 

E|-------0----------0---------0-----------0-----|
B|----------0----------0---------0-----------0--|
G|----------------------------------------------|
D|-----4----------4---------4----------4--------|
A|--2----------2---------2----------2-----------|
E|----------------------------------------------|
   She feels secure and sound and I,

E|-------0----------0---------0-----0--|
B|----------0----------0---------0--0--|
G|----------------------------------2--|
D|-----2----------2---------2-------2--|
A|--0----------0---------0----------0--|
E|----------------------------------x--|
    Feel like I’m losing my mind!


Chorus:
E                 B
She’s a coldfront giving me a heatstroke
C#               A           B
She’s a hit song ending on a weak note
A       C#         B
I go high she goes low
       A          B  
It’s a long rollercoaster ride
E                   B
She’s a saint with a smile on a Sunday
C#              A         B
Going out getting wild on a Monday
E       C#          A
Took two weeks to say hello
            A       B
Now I’m too weak to say goodbye


Outro:
E, B, C#          A       B
oo------, I’m too week to say goodbye
E, B, A                   B          E
oo------, I’m too week to say goodbye


End.

            
            
Suggest correction
Creating personal tab
Creating personal tab
You can edit any tab online and save it as your Personal.

You can edit, replace or remove any tab part or add personal notes – all changes will be seen only by you.

Personal tabs can be accessed anytime from any device, even offline.
Learn more »
Give kudos to tab author, rate the tab!
1 2 3 4 5
comments
print report bad tab
1 comment total.
0 reply
Jasmine24 10 Dec 07, 2013 09:15 AM

Great job on chords but they sound better played like,
C#m A B E F#
E|-4---0---2---0---2---|
B|-5---2---4---0---2---|
G|-6---2---4---1---3---|
D|-6---2---4---2---4---|
A|-4---0---2---2---4---|
E|-x---x---x---0---2---|

C#m is barred on the fourth fret, B is barred on the second fret (that is, if you're not trying to escape the barre chords, which is totally understandable)

guest
You may want to rate the tab now too:
select rating
Wanna post a correction for this tab? Suggest correction