Oops, an error
Loading. Please wait.

Drug Culture Tab

691 views 1 this week
no commentswrite comment
1 2 3 4 5
please rate
add to favorites
launch autoscroll
font size
0
reset
how to read this tab
guitar tuner
Autoscroll
slow
fast
+/-
esc
set tempo
stop
Help us to improve Ultimate-Guitar.com Take our survey!
×
Capitalist Casualties
Drug Culture

E-----------------------------------------|
B-----------------------------------------|
G-6-9-8--6-9-8-55555-7777-6-9-8-5555-7777-|
D-6-9-8--6-9-8-55555-7777-6-9-8-5555-7777-|
A-4-7-6--4-7-6-33333-5555-4-7-6-3333-5555-|
E-----------------------------------------|

e-------------|
B-------------|
G-3333-22-----|
D-3333-22--22-|
A-1111-00--22-|
E----------00-|

e---------|
B---------|
G---3-2---|
D-3-3-2-2-|
A-1-1-0-2-|
E-1-----0-|

e------------------------------------------------|
B------------------------------------------------|
G------------------------------------------------|
D-8-8-8-8-8-8-11111111-7777-11111111-1010101010--|
A-8-8-8-8-8-8-11111111-7777-11111111-1010101010--|
E-6-6-6-6-6-6-9-9-9-9--5555-9-9-9-9--8-8-8-8-8---|

e----------------------------------|
B----------------------------------|
G----------------------------------|
D-11-7-10--11-8-7--11-7-10--11-8-7-|
A-11-7-10--11-8-7--11-7-10--11-8-7-|
E-9--5-8---9--6-5--9--5-8---9--6-5-|
Suggest correction
Give kudos to tab author, rate the tab!
1 2 3 4 5
comments
print report bad tab
guest
You may want to rate the tab now too:
select rating
Please do not post tabs as comments. Select "correction" instead!