Oops, an error
Loading. Please wait.

Amanha Tou Melhor Tab

version 1
version 1

Whole song

  • Tab from the whole song, with melodies. Also with tempo.

Video

  • It is a video version, the whole song with tab.
133 views 3 this week
no commentswrite comment
1 2 3 4 5
2 more votes to show rating
add to favorites
launch autoscroll
font size
0
reset
how to read this tab
guitar tuner
Autoscroll
slow
fast
+/-
esc
set tempo
stop
Help us to improve Ultimate-Guitar.com Take our survey!
×
Author
Difficulty
intermediate
About this tab version
Tab from the whole song, with melodies. Also with tempo. Was this info helpful? Yes No
Capitão Fausto - Amanhã Tou Melhor 
Album: Capitão Fausto têm os dias contados
Tab por Ricardo Gonçalves
www.terceiramaior.pt

bpm = 126

[Intro]

     D-7
     1   2   3   4   
e|-------------------|
B|---6---6---6---6---|
G|---5---5---5---5---|
D|---7---7---7---7---|
A|---5---5---5---5---|
E|-------------------|



[Parte A]

     G-            D-7    C    (C)            D-7    G-   (G-)           D-7    C
     1  e  2  e  3  e  4  e     1  e  2  e  3  e  4  e     1  e  2  e  3  e  4  e
e|---------------------------|--------------------------|--------------------------|
B|---3--------------6-----5--|-(5)-------------6-----3--|-(3)-------------6-----5--|
G|---3--------------5-----5--|-(5)-------------5-----3--|-(3)-------------5-----5--|
D|---5--------------7-----5--|-(5)-------------7-----5--|-(5)-------------7-----5--|
A|---5--------------5-----3--|-(3)-------------5-----5--|-(5)-------------5-----3--|
E|---3-----------------------|-----------------------3--|-(3)----------------------|

   (C)          F     F
    1  e  2  e  3  e  4  e  
e|--------------------------|
B|-(5)----------1-----1-----|
G|-(5)----------2-----2-----|  (x3)
D|-(5)----------3-----3-----|
A|-(3)----------3-----3-----|
E|--------------1-----1-----|

     G-            D-7    C    (C)            D-7    G-   (G-)           D-7    C
     1  e  2  e  3  e  4  e     1  e  2  e  3  e  4  e     1  e  2  e  3  e  4  e
e|---------------------------|--------------------------|--------------------------|
B|---3--------------6-----5--|-(5)-------------6-----3--|-(3)-------------6-----5--|
G|---3--------------5-----5--|-(5)-------------5-----3--|-(3)-------------5-----5--|
D|---5--------------7-----5--|-(5)-------------7-----5--|-(5)-------------7-----5--|
A|---5--------------5-----3--|-(3)-------------5-----5--|-(5)-------------5-----3--|
E|---3-----------------------|-----------------------3--|-(3)----------------------|

   (C)          A-    A- Bb
    1  e  2  e  3  e  4  e  
e|---------------------------|
B|-(5)----------5-----5--6---|
G|-(5)----------5-----5--7---|  
D|-(5)----------7-----7--8---|
A|-(3)----------7-----7--8---|
E|--------------5-----5--6---|


[Parte B]

   (Bb)           D-7    C    (C)            D-7    G-   (G-)            F    Bb
    1  e  2  e  3  e  4  e     1  e  2  e  3  e  4  e     1  e  2  e  3  e  4  e
e|--------------------------|--------------------------|--------------------------|
B|-(6)-------------6-----5--|-(5)-------------6-----3--|-(3)-------------1-----3--|
G|-(7)-------------5-----5--|-(5)-------------5-----3--|-(3)-------------2-----3--| (x3)
D|-(8)-------------7-----5--|-(5)-------------7-----5--|-(5)-------------3-----3--|
A|-(8)-------------5-----3--|-(3)-------------5-----5--|-(5)-------------3-----1--|
E|-(6)----------------------|-----------------------3--|-(3)-------------1--------|

   (Bb)           D-7    C    (C)            D-7    G-   (G-)            
    1  e  2  e  3  e  4  e     1  e  2  e  3  e  4  e     1  e  2  e  3  e  4  e
e|--------------------------|--------------------------|--------------------------|
B|-(6)-------------6-----5--|-(5)-------------6-----3--|-(3)----------------------|
G|-(7)-------------5-----5--|-(5)-------------5-----3--|-(3)----------------------|
D|-(8)-------------7-----5--|-(5)-------------7-----5--|-(5)----------------------|
A|-(8)-------------5-----3--|-(3)-------------5-----5--|-(5)----------------------|
E|-(6)----------------------|-----------------------3--|-(3)----------------------|


Repeat [Intro]

Repeat [Parte A]

Repeat [Parte B] 

   (G-)                        G+                        D-7
    1  e  2  e  3  e  4  e     1  e  2  e  3  e  4  e     1  e  2  e  3  e  4  e 
e|--------------------------||--------------------------|--------------------------|
B|-(3)----------------------||--------------------------|-----------------3--------|
G|-(3)----------------------||--------------------------|--------------5--------4--|
D|-(5)----------------------||-----------------5-----3--|-(3)----------------------|
A|-(5)-------------------2--||-(2)-2--3--5--3-----------|--------------------------|
E|-(3)----------------------||--------------------------|--------------------------|

    G+                        D-7                         D-7
    1  e  2  e  3  e  4  e     1  e  2  e  3  e  4  e      1  e  2  e  3  e  4  e
e|--------------------------|--------------------------||--------------------------|
B|-----------------------6--|-(6)-5--3-----------------||-(6)-5--3-----------------|
G|-(4)----------------------|-----------5--4--2-----2--||-----------5--4--2--0-----|
D|--------------------------|--------------------------||--------------------------|
A|--------------------------|--------------------------||--------------------------|
E|--------------------------|--------------------------||--------------------------|
                            -1. 2. 3.                   -4.

[Parte C]

    F                         (F)
    1  e  2  e  3  e  4  e     1  e  2  e  3  e  4  e     1  e  2  e  3  e  4  e 
e|--------------------------|--------------------------|--------------------------|
B|--1-----------------------|-(1)----------------------|--8-----6-----------------|
G|--2-----------------------|-(2)----------------------|--9-----7-----------------|  
D|--3-----------------------|-(3)----------------------|--9-----7-----------------|
A|--3-----------------------|-(3)----------------------|--7-----5-----------------|
E|--1-----------------------|-(1)----------------------|--------------------------|

   
    1  e  2  e  3  e  4  e            1  e  2  e  3  e  4  e 
e|---------------------------|    e|--------------------------|
B|--------------------3------|    B|--1-----------------------|
G|--------------------3------| x3 G|--2-----------------------|
D|--------------------5------|    D|--3-----------------------|
A|--------------------5------|    A|--3-----------------------|
E|--------------------3------|    E|--1-----------------------|


[Parte B] = Final


Check out my video lesson: https://youtu.be/t4uVUE_pZ6g

Hope you like it! 

Cheers - Ric.

************************************

| (n)  Ghost note

************************************
Suggest correction
Give kudos to tab author, rate the tab!
1 2 3 4 5
comments
print report bad tab
guest
You may want to rate the tab now too:
select rating
Wanna post a correction for this tab? Suggest correction