Oops, an error
Loading. Please wait.

Oh Messy Life bass

1,423 views 6 this week
2 commentsread comments
1 2 3 4 5
1 last vote to show rating
add to favorites
×
Save as Personal and add changes to this tab that will be seen only by you. Learn more ›
×
You can save this tab as Personal to edit and correct it or add notes. All changes will be seen only by you. Learn more »
launch autoscroll
font size
0
reset
guitar tuner
edit
Autoscroll
slow
fast
+/-
esc
set tempo
stop
Author
-------------------------------------------------------------------------------
                           OH MESSY LIFE - Cap'n Jazz
-------------------------------------------------------------------------------
Tabbed by: Joe Owens
E-mail: joeowens994@hotmail.com
Video: http://www.youtube.com/watch?v=NwFij2zVGT8

Just by listening to the song and jamming on my bass, I'm fairly sure I've
figured out the bass parts. Email me corrections if you've got a better idea
than me. I suggest listening to the song as you play the notes to get a 
proper feel for the rhythm because for the most part this tab will only give 
you a basic idea of how it should go. Watch the video above if you need a hand 
with learning how it goes.

Tuning: Standard (EADG)

Intro:
                         x2                 x2                 x2
G|------------------------|------------------|------------------|
D|------------------------|-9--9---9--9--9-9-|------------------|
A|-10--10---10--10--10-10-|------------------|-7--7---7--7--7-7-|
E|------------------------|------------------|------------------|

Repeat entire intro x6, finishing on
G|----------------------|
D|----------------------|
A|-7--7---7--7--7-7-7-7-|
E|----------------------|


Chorus:                                     x2
G|-------------------------------------------|
D|-------------------------------------------|
A|-10--10-10-10-10-10--10-10-10-10-10--10-10-|
E|-------------------------------------------|
                               x2
G|------------------------------|
D|------------------------------|
A|------------------------------|
E|-8--8-8-8-8-8--8-8-8-8-8--8-8-|
                                             x2
G|-------------------------------------------|
D|-------------------------------------------|
A|-10--10-10-10-10-10--10-10-10-10-10--10-10-|
E|-------------------------------------------|
                               x2
G|------------------------------|
D|------------------------------|
A|------------------------------|
E|-8--8-8-8-8-8--8-8-8-8-8--8-8-|

                                
G|------------------------------|
D|-------12----------12---------|
A|-10----------10---------------|
E|------------------------------|

Repeat the whole chorus twice.


Verse:
Next part I'm calling the verse for want of a better name for it. This part 
doesn't have much bass in it, but here's what I picked up. On the words:
"...boldly bald...", "...cousin Bucky kept..." in the first part, play

G|----------------------|
D|-----12------12-------|
A|----------------------|
E|----------------------|

And repeat for the every line of the verse at those parts. If you have a 
listen to the song you'll hear the note being played.


Chorus:                                     x2
G|-------------------------------------------|
D|-------------------------------------------|
A|-10--10-10-10-10-10--10-10-10-10-10--10-10-|
E|-------------------------------------------|
                               x2
G|------------------------------|
D|------------------------------|
A|------------------------------|
E|-8--8-8-8-8-8--8-8-8-8-8--8-8-|
                                             x2
G|-------------------------------------------|
D|-------------------------------------------|
A|-10--10-10-10-10-10--10-10-10-10-10--10-10-|
E|-------------------------------------------|
                               x2
G|------------------------------|
D|------------------------------|
A|------------------------------|
E|-8--8-8-8-8-8--8-8-8-8-8--8-8-|

Then finish on:                               
G|----------|
D|-------12-|
A|-10-------|
E|----------|
Suggest correction
Creating personal tab
Creating personal tab
You can edit any tab online and save it as your Personal.

You can edit, replace or remove any tab part or add personal notes – all changes will be seen only by you.

Personal tabs can be accessed anytime from any device, even offline.
Learn more »
Give kudos to tab author, rate the tab!
1 2 3 4 5
comments
print report bad tab
2 comments total.
0 reply
joeowens994 216 Apr 02, 2013 09:49 PM

Video at http://www.youtube.com/watch?v=NwFij2zVGT.

0 reply
Kleekl 56 May 02, 2013 03:15 PM

thanks man!

guest
You may want to rate the tab now too:
select rating
Wanna post a correction for this tab? Suggest correction