Oops, an error
Loading. Please wait.

Low Day chords

by Capra
5,220 views 3 this week
3 commentsread comments
1 2 3 4 5
x 5
add to favorites
×
Save as Personal and add changes to this tab that will be seen only by you. Learn more ›
×
You can save this tab as Personal to edit and correct it or add notes. All changes will be seen only by you. Learn more »
launch autoscroll
font size
0
reset
transpose
0
reset
display chords
guitar tuner
backing track
0:00
0:00
edit
Autoscroll
slow
fast
+/-
esc
set tempo
stop
Difficulty
Strumming
There is no strumming pattern for this song yet. and get +5 IQ
I found out there was no tab 4 this song so I did it by ear hope you guys like it!


   Intro:
e|--5-3--0--------|-5-3--0--------|--5-3--0--------|--1--0----------|
B|--------3-1--3--|-------3-1--3--|--------3-1--3--|------3-1----1--|
G|----------------|---------------|----------------|------------2---|
D|----------------|---------------|----------------|----------------|
A|----------------|---------------|----------------|----------------|
E|----------------|---------------|----------------|----------------|

C
Red, blue, green lights flicker undercover
Dm                       F
Miss me like no other miss me like no other
C
Blackout trailbrazing joking in the water
Dm                       F
Miss me like no other miss me like no other

G
We get a little lonesome
G
we get a little lone sometimes

CHORUS:

F             C
And what you say
            Dm
Just fades away           
             Am
Get down on a low day 
F             C
And what you say
            Dm
Just fades away           
             Am
Get down on a low day 
G 
Low low low low 

e|--5-3--0--------|-5-3--0--------|--5-3--0--------|--1--0----------|
B|--------3-1--3--|-------3-1--3--|--------3-1--3--|------3-1----1--|
G|----------------|---------------|----------------|------------2---|
D|----------------|---------------|----------------|----------------|
A|----------------|---------------|----------------|----------------|
E|----------------|---------------|----------------|----------------|


C                                               
Black dress gang of rouge She won't even bother
Dm                     F
Miss me like no other miss me like no other
C
Time laid back on the sea
Dm                        F      
Were gonna sail the world while we are fast asleep

G
We get a little lonesome
G
we get a little lone sometimes

CHORUS:

F             C
And what you say
            Dm
Just fades away           
             Am
Get down on a low day 
F             C
And what you say
            Dm
Just fades away           
             Am
Get down on a low day 
G 
Low low low low 

(After Solo)

C
I get mine I get mine
        Dm                    F
Little Gucci Little mama aint worth my time

G
We get a little lonesome
G
we get a little lone sometimes

Chorus:

F             C
And what you say
            Dm
Just fades away           
             Am
Get down on a low day 
F             C
And what you say
            Dm
Just fades away           
             Am
Get down on a low day 
G                  C
Low low low low

            
            
Suggest correction
Creating personal tab
Creating personal tab
You can edit any tab online and save it as your Personal.

You can edit, replace or remove any tab part or add personal notes – all changes will be seen only by you.

Personal tabs can be accessed anytime from any device, even offline.
Learn more »
comments
print report bad tab
3 comments total.
0 reply
boy652 10 Mar 02, 2010 03:41 PM

nice work, i could like to also add on the chorus when he sings " Get down on a low day, he says it twice and i play it with a F for the second one sounds fine to me :) nice

0 reply
Fuse49 194 Jun 15, 2012 04:22 PM

Thanx for this. I was hoping there would be a tab for this song.

0 reply
shernae100 149 Feb 24, 2016 04:48 PM

I play the 1 twice
e|--5-3--0--------|-5-3--0--------|--5-3--0-----------|--1--0----------|
B|--------3-1-1-3--|-------3-1-1-3--|--------3-1-1-3--|------3-1----1--|
G|----------------|---------------|-------------------|------------2---|
D|----------------|---------------|-------------------|----------------|
A|----------------|---------------|-------------------|----------------|
E|----------------|---------------|-------------------|----------------|

guest
Wanna post a correction for this tab? Suggest correction