Oops, an error
Loading. Please wait.

Xx Sew My Eyes tab

by Capsize
778 views 18 this week
1 commentread comment
1 2 3 4 5
x 4
add to favorites
×
Save as Personal and add changes to this tab that will be seen only by you. Learn more ›
×
You can save this tab as Personal to edit and correct it or add notes. All changes will be seen only by you. Learn more »
launch autoscroll
font size
0
reset
how to read this tab
guitar tuner
edit
Autoscroll
slow
fast
+/-
esc
set tempo
stop
About this tab version
Tabbed it out by ear and reconfirmed with Capsize's guitarist Ryan Knowles via FaceTime during a session and this is exactly how it was written and played live by the band. Was this info helpful? Yes No
D|--------------------------------------------|
A|-----6-6-6-------------------6-6-6----------|
F|-----7-7-7-------------------7-7-7----------|
C|0-0-0-------------------0-0-0---------------|
G|0-0-0-------7-7-7-8-8-8-0-0-0-----7-7-7-8-8-|
C|0-0-0-------5-5-5-7-7-7-0-0-0-----5-5-5-7-7-| (x2)

D |-       -       -
A |       -       -
F |-       -       -            (Play this sequence twice)
C |3       7       2
G |0       0       0
C |0 (x24) 8 (x12) 3 (x12)

D|---------------------------------------|
A|---------------------------------------|
F|---------------------------------------|    (x2)
C|0-0-3-0-0-3-0-0-3-0-0-3-----3----7--2--|
G|0-0-7-0-0-7-0-0-7-0-0-7---0--0----0--0-|
C|0-0---0-0---0-0---0-0----5-5--5/8--3---|

D|---------------------------------|
A|-----6-6-6-----------------6-6-6-|
F|-----7-7-7-----------------7-7-7-|
C|0-0-0-----------------0-0-0------|
G|0-0-0-----7-7-7-8-8-8-0-0-0------|
C|0-0-0-----5-5-5-7-7-7-0-0-0------|

[CHORUS]
D |-       -      -       -
A |-       -      -       -
F |-       -      -       -
C |8       5      0       10
G |8       5      0       10
C |8 (x18) 5 (x6) 0 (x18) 10 (x6)

D|----------------------------------|
A|----------------------------------|
F|----------------------------------|      (x2)
C|0-0-7--0-0-7----0-0-7--0-0-0------|
G|0-0-11-0-0-11br-0-0-11-4-4-4------|
C|0-0----0-0------0-0----0-0-0------|

D |-       -      -
A |-       -      -
F |-       -      -
C |3       -      -
G |4       2      4
C |3 (x12) 1 (x6) 2 (x6)

D|----------------------------------|
A|----------------------------------|
F|----------------------------------|
C|0-0-7--0-0-7----0-0-7--0-0-0------|      (x2)
G|0-0-11-0-0-11br-0-0-11-4-4-4------|
C|0-0----0-0------0-0----0-0-0------|

D |-       -      -
A |-       -      -
F |-       -      -
C |3       -      -
G |4       2      4
C |3 (x12) 1 (x6) 2 (x6)

D |-       -       -
A |-       -       -
F |-       -       -      (Play this sequence twice)
C |3       7       2
G |0       0       0
C |0 (x24) 8 (x12) 3 (x12)

D|---------------------------------------|
A|---------------------------------------|
F|---------------------------------------|(x2)
C|0-0-3-0-0-3-0-0-3-0-0-3-----3----7--2--|
G|0-0-7-0-0-7-0-0-7-0-0-7---0--0----0--0-|
C|0-0---0-0---0-0---0-0----5-5--5/8--3---|

D|-----------------------------------|
A|-----6-6-6-----------------6-6---6-|
F|-----7-7-7-----------------7-7---7-|
C|0-0-0-----------------0-0-0----0---|
G|0-0-0-----7-7-7-8-8-8-0-0-0----0-8-|
C|0-0-0-----5-5-5-7-7-7-0-0-0----0-8-|
                                 PM
[CHORUS]
D |-       -      -       -
A |-       -      -       -
F |-       -      -       -
C |8       5      0       10
G |8       5      0       10
C |8 (x18) 5 (x6) 0 (x18) 10 (x6)

D|--------------------------------------------------|
A|----11--11------11--11------11--11------11--11----|
F|--14--14--14--14--14--14--14--14--14--14--14--14--|
C|12----------12----------12----------12------------|
G|--------------------------------------------------|
C|--------------------------------------------------|

D|--------------------------------------------|
A|--------------------------------------------|
F|--------------------------------------------|
C|0----0----0----0--0-1-0----0----0----0--0-1-|
G|0----0----0----0--0-1-0----0----0----0--0-1-|
C|0----0----0----0--0-1-0----0----0----0--0-1-|
                    PM                    PM

D | -       -      -
A | -       -      -
F | -       -      -
C | 3       -      -
G | 4       2      4
C | 3 (x12) 1 (x6) 2 (x1)

D|---10/9--10/9---10/9--10/9-       D | ---|
A|---14/13/14/13--14/13/14/13       A | ---|
F|---------------------------       F | ---|
C|00------------00-----------  (x2) C | 0--|
G|00------------00-----------       G | 4--|
C|00------------00-----------       C | 0--|  (x3)
   PM            PM

D|---10/9--10/9---10/9--10/9-       D | ---|
A|---14/13/14/13--14/13/14/13       A | ---|
F|---------------------------       F | ---|
C|00------------00-----------  (x2) C | ---|
G|00------------00-----------       G | 2--|
C|00------------00-----------       C | 1--|  (x3)
   PM            PM

D|---10/9--10/9---10/9--10/9-       D | ---|
A|---14/13/14/13--14/13/14/13       A | ---|
F|---------------------------       F | ---|
C|00------------00-----------  (x2) C | 0--|
G|00------------00-----------       G | 4--|
C|00------------00-----------       C | 0--|  (x3)
   PM            PM

D|---10/9--10/9---10/9--10/9-       D | ---|
A|---14/13/14/13--14/13/14/13       A | ---|
F|---------------------------       F | ---|
C|00------------00-----------  (x2) C | ---|
G|00------------00-----------       G | 2--|
C|00------------00-----------       C | 1--|  (x3)
   PM            PM

[END WITH]
D |---|
A |---|
F |---|
C |00-|
G |00-|
C |00-|
   PM

            
            
Suggest correction
Creating personal tab
Creating personal tab
You can edit any tab online and save it as your Personal.

You can edit, replace or remove any tab part or add personal notes – all changes will be seen only by you.

Personal tabs can be accessed anytime from any device, even offline.
Learn more »
comments
print report bad tab
1 comment total.
+1 reply
xNMM 10 Apr 02, 2017 06:50 AM

Great tab, however the dissonant chords at the end of the song sound like they should be a string up on the F and A strings.
D|-----
A|11\10
F|14\13

guest
You may want to rate the tab now too:
select rating
Wanna post a correction for this tab? Suggest correction