Oops, an error
Loading. Please wait.

Abba Zabba bass

version 1
version 1

Whole song

843 views 3 this week
no commentswrite comment
1 2 3 4 5
x 3
add to favorites
×
Save as Personal and add changes to this tab that will be seen only by you. Learn more ›
×
You can save this tab as Personal to edit and correct it or add notes. All changes will be seen only by you. Learn more »
launch autoscroll
font size
0
reset
guitar tuner
edit
Autoscroll
slow
fast
+/-
esc
set tempo
stop
Author
Difficulty
Do a swing rhythm.

2 measures tacet

Verse 1
G|-----------------|-----------------|-----------------|-----------------|
D|-----------------|-----------------|-----------------|-----------------|
A|-5---------------|-5-------5-------|-3---------------|-3---3---5---3-5-|
E|---------5-------|-------------5---|---------3-------|-----------------|
   1 + 2 + 3 + 4 +   1 + 2 + 3 + 4 +   1 + 2 + 3 + 4 +   1 + 2 + 3 + 4 +

 5
G|-----7---5-------|-------------------|-----------------|-----------------|
D|-----------7-----|-5/6-------5-----6\|-5---------------|-----------------|
A|-----------------|---------------8---|-----3---5---3-5-|-----------------|
E|-----------------|-------------------|-----------------|-----------------|
   1 + 2 + 3 + 4 +   1   + 2 + 3 + 4 +   1 + 2 + 3 + 4 +   1 + 2 + 3 + 4 +

 9
G|-----------------|-----------------|-----------------|-----------------|
D|-----------------|-------------3---|-----------------|-------------3---|
A|-3---3---5---3-5-|---------5-----3-|-----3---5---3-5-|---------5-----3-|
E|-----------------|-----------------|-----------------|-----------------|
   1 + 2 + 3 + 4 +   1 + 2 + 3 + 4 +   1 + 2 + 3 + 4 +   1 + 2 + 3 + 4 +

13                                    (coming over      pretty soon)
G|-----------------|-----------------|-----------------|-----------------|
D|-----------------|-----------------|---------3-------|-----------------|
A|-----3---5---3-5-|-----------------|-----5-------5---|-5---3-3---------|
E|-----------------|-----------------|-----------------|-----------------|
   1 + 2 + 3 + 4 +   1 + 2 + 3 + 4 +   1 + 2 + 3 + 4 +   1 + 2 + 3 + 4 +

17
G|-----------------|-----------------|-----------------|-----------------|
D|-----------------|-----------------|---------3-------|-----------------|
A|-----3---5---3-5-|-----------------|-----5-------5---|-5---3-3---------|
E|-----------------|-----------------|-----------------|-----------------|
   1 + 2 + 3 + 4 +   1 + 2 + 3 + 4 +   1 + 2 + 3 + 4 +   1 + 2 + 3 + 4 +

21       (well,    run,      run, ...)
G|-----------------|-----------------|-----------------|-----------------|
D|-----------------|-----------------|-3---------------|-----------------|
A|-----3---5---3-5-|---------5-------|---------5-------|-5---3-3---------|
E|-----------------|-----------------|-----------------|-----------------|
   1 + 2 + 3 + 4 +   1 + 2 + 3 + 4 +   1 + 2 + 3 + 4 +   1 + 2 + 3 + 4 +

25
G|-----------------|-----------------|-----------------|
D|-----------------|-----------------|-----------------|
A|-----3---5---3---|-5---3-3-5---3-5-|-----------------|
E|-----------------|-----------------|-----------------|
   1 + 2 + 3 + 4 +   1 + 2 + 3 + 4 +   1 + 2 + 3 + 4 +

Verse 2
28
G|-----------------|-----------------|-----------------|-----------------|
D|-----------------|-----------------|-----------------|-----------------|
A|-5---------------|-5-------5-------|-3---------------|-3---3---5---3-5-|
E|---------5-------|-------------5---|---------3-------|-----------------|
   1 + 2 + 3 + 4 +   1 + 2 + 3 + 4 +   1 + 2 + 3 + 4 +   1 + 2 + 3 + 4 +

32
G|-----------------|-----------------|-----------------|-----------------|
D|-----------------|---------3-------|-----------------|-----------------|
A|-----------------|-----5-------5---|-5---3-3---------|-----3---5---3-5-|
E|-----------------|-----------------|-----------------|-----------------|
   1 + 2 + 3 + 4 +   1 + 2 + 3 + 4 +   1 + 2 + 3 + 4 +   1 + 2 + 3 + 4 +

36                       abba       zaba
G|-----------------|-----------------|-----------------|-----------------|
D|-----------------|---------3-------|-----------------|-----------------|
A|-----------------|-----5-------5---|-5---3-3---------|-----3---5---3-5-|
E|-----------------|-----------------|-----------------|-----------------|
   1 + 2 + 3 + 4 +   1 + 2 + 3 + 4 +   1 + 2 + 3 + 4 +   1 + 2 + 3 + 4 +

40
G|-----------------|-----------------|-----------------|-----------------|
D|-----------------|-----------------|-------------3---|-----------------|
A|-----5---5---3-3-|-----3---5---3-5-|-----5---5-----3-|-----3---5---3-5-|
E|-----------------|-----------------|-----------------|-----------------|
   1 + 2 + 3 + 4 +   1 + 2 + 3 + 4 +   1 + 2 + 3 + 4 +   1 + 2 + 3 + 4 +

44
G|-----------------|-----------------|-----------------|-----------------|
D|-------------3---|-----------------|-----------------|-----------------|
A|-----5---5-----3-|-----3---5---3-5-|-----3---5---3-5-|-----------------|
E|-----------------|-----------------|-----------------|-----------------|
   1 + 2 + 3 + 4 +   1 + 2 + 3 + 4 +   1 + 2 + 3 + 4 +   1 + 2 + 3 + 4 +

(chiller part)
48
G|-----------------|-----------------|-----------------|-----------------|
D|-----------------|-----------------|-----------------|-----------------|
A|-5---------------|-3---------------|-5---------------|-3---------------|
E|-----------------|-----------------|-----------------|-----------------|
   1 + 2 + 3 + 4 +   1 + 2 + 3 + 4 +   1 + 2 + 3 + 4 +   1 + 2 + 3 + 4 +

52
G|-----------------|-----------------|-----------------|-----------------|
D|-----------------|-----------------|-----------------|-----------------|
A|-5-------3-------|-5-----5-3-------|-5-------3-------|-5-----5-3-------|
E|-----------------|-----------------|-----------------|-----------------|
   1 + 2 + 3 + 4 +   1 + 2 + 3 + 4 +   1 + 2 + 3 + 4 +   1 + 2 + 3 + 4 +

56                                  (bass riffage)
G|-----------------|-----------------|-----------5-----|-----------------|
D|-----------------|-----------------|-----5-7-----7-\-|-3---------------|
A|-5-------3-------|-5-----5-3-------|-5-8-------------|-----5-3-5-------|
E|-----------------|-----------------|-----------------|---------------5-|
   1 + 2 + 3 + 4 +   1 + 2 + 3 + 4 +   1 + 2 + 3 + 4 +   1 + 2 + 3 + 4 +

60
G|-----------5---5-|-----------------|-7-5-------------|-----------------|
D|-----5-7-----7---|-----------------|-------7---5-----|-----------------|
A|-5-8-------------|---------------5-|---------------8-|-----5-3-5-----5-|
E|-----------------|-----------------|-----------------|-----------------|
   1 + 2 + 3 + 4 +   1 + 2 + 3 + 4 +   1 + 2 + 3 + 4 +   1 + 2 + 3 + 4 +

64
G|-7-5-------------|-----------------|-7-5-------------|-----------------|
D|-----7-5---------|---------------7-|-----7-5---------|-----------------|
A|-----------8---5-|-8---5-3-5-------|-----------8---5-|-8---5-3-5-------|
E|-----------------|-----------------|-----------------|---------------5-|
   1 + 2 + 3 + 4 +   1 + 2 + 3 + 4 +   1 + 2 + 3 + 4 +   1 + 2 + 3 + 4 +

68
G|-----------------|-----------------|-----------------|-----------------|
D|-----------------|-----------------|-----------------|---------3-------|
A|-5-8-5-------5---|-8---5-3-5-------|-5-8-5-------3-4-|-5---5-------5---|
E|-------8---5-----|---------------5-|-------8---5-----|-----------------|
   1 + 2 + 3 + 4 +   1 + 2 + 3 + 4 +   1 + 2 + 3 + 4 +   1 + 2 + 3 + 4 +

72
                                     (band instrumental)
G|-----------------|-----------------|-----------------|-----------------|
D|-----------------|-----------------|---------3-------|-----------------|
A|-5---3-3---------|-----3---5---3---|-5---------------|-5---------3-----|
E|-----------------|-----------------|-----------------|-------3-5-------|
   1 + 2 + 3 + 4 +   1 + 2 + 3 + 4 +   1 + 2 + 3 + 4 +   1 + 2 + 3 + 4 +

76
G|---------7-------|-----------------|---------7-------|-----------------|
D|-------7---------|-----------------|-------7---------|-----------------|
A|-5---------------|-3-------3-------|-5---7---------3-|-----3-5-3-------|
E|-----------------|-------3---------|-----------------|-----------------|
   1 + 2 + 3 + 4 +   1 + 2 + 3 + 4 +   1 + 2 + 3 + 4 +   1 + 2 + 3 + 4 +

80
G|---------7-------|-----------------|---------7-------|-----------------|
D|-------7---7-----|-----------------|-------7---7-----|-----------------|
A|-5---------------|-3-------3-------|-5---7---------3-|-----3-5-3-------|
E|-----------------|-------3---------|-----------------|---5-------------|
   1 + 2 + 3 + 4 +   1 + 2 + 3 + 4 +   1 + 2 + 3 + 4 +   1 + 2 + 3 + 4 +

84
G|---------7-------|-----------------|
D|-------7---7-----|-----------------|
A|-5---------------|-3-----5---5-----|
E|-----------------|-----3---3---3---|
   1 + 2 + 3 + 4 +   1 + 2 + 3 + 4 +

Verse 3
86
G|-----------------|-----------------|-----------------|-----------------|
D|-----------------|-----------------|-----------------|-----------------|
A|-5---------------|-5-------5-------|-3---------------|-3---3---5---3-5-|
E|---------5-------|-------------5---|---------3-------|-----------------|
   1 + 2 + 3 + 4 +   1 + 2 + 3 + 4 +   1 + 2 + 3 + 4 +   1 + 2 + 3 + 4 +

90                       abba       zaba
G|-----------------|-----------------|-----------------|-----------------|
D|-----------------|---------3-------|-----------------|-----------------|
A|-----------------|-----5-------5---|-5---3-3---------|-----3---5---3-5-|
E|-----------------|-----------------|-----------------|-----------------|
   1 + 2 + 3 + 4 +   1 + 2 + 3 + 4 +   1 + 2 + 3 + 4 +   1 + 2 + 3 + 4 +

94                       abba       zaba
G|-----------------|-----------------|-----------------|-----------------|
D|-----------------|---------3-------|-----------------|-----------------|
A|-----------------|-----5-------5---|-5---3-3---------|-----3---5---3-5-|
E|-----------------|-----------------|-----------------|-----------------|
   1 + 2 + 3 + 4 +   1 + 2 + 3 + 4 +   1 + 2 + 3 + 4 +   1 + 2 + 3 + 4 +

98     abba       zaba
G|-----------------|-----------------|-----------------|-----------------|
D|-------------3---|-----------------|-------------3---|-----------------|
A|---------5-----3-|-----3---5---3---|-5---5---5-----3-|-----3---5---3---|
E|-----------------|-----------------|-----------------|-----------------|
   1 + 2 + 3 + 4 +   1 + 2 + 3 + 4 +   1 + 2 + 3 + 4 +   1 + 2 + 3 + 4 +

102
G|-----------------|-----------------|-----------------|-----------------|
D|-------------3---|-----------------|-----------------|-----------------|
A|-5---5---5-----3-|-----3---5---3---|-5---3-3-5---3---|-5---------------|
E|-----------------|-----------------|-----------------|-----------------|
   1 + 2 + 3 + 4 +   1 + 2 + 3 + 4 +   1 + 2 + 3 + 4 +   1 + 2 + 3 + 4 +

(chiller part 2)
106
G|-----------------|-----------------|-----------------|-----------------|
D|-----------------|-----------------|-----------------|-----------------|
A|-5---------------|-3---------------|-5---------------|-3---------------|
E|-----------------|-----------------|-----------------|-----------------|
   1 + 2 + 3 + 4 +   1 + 2 + 3 + 4 +   1 + 2 + 3 + 4 +   1 + 2 + 3 + 4 +

110                             two   shadows at noon
G|-----------------|-----------------|-----------------|-----------------|
D|-----------------|-----------------|-----------------|-----------------|
A|-5-------3-------|-5-------3-------|-5-------3-------|-5-------3-------|
E|-----------------|-------5-----5---|-----------------|-------5-----5---|
   1 + 2 + 3 + 4 +   1 + 2 + 3 + 4 +   1 + 2 + 3 + 4 +   1 + 2 + 3 + 4 +

114 catch us soon                     catch us soon
G|-----------------|-----------------|-----------------|-----------------|
D|-----------------|-----------------|-----------------|-----------------|
A|-5-------3-------|-5-----3-----3---|-5-------3-------|-5-------3-------|
E|-----------------|-----5-----5-----|-----------------|-------5-----5---|
   1 + 2 + 3 + 4 +   1 + 2 + 3 + 4 +   1 + 2 + 3 + 4 +   1 + 2 + 3 + 4 +

118
G|-----------------|-----------------|-----------------|-----------------|
D|-----------------|-----------------|-----------------|-----------------|
A|-5-------3-------|-5-------3---3---|-5-------3-------|-5-------3---3-4-|
E|-----------------|-------5---5-----|-----------------|-------5---5-----|
   1 + 2 + 3 + 4 +   1 + 2 + 3 + 4 +   1 + 2 + 3 + 4 +   1 + 2 + 3 + 4 +

122 (to fade, all variations on 114-117)
G|-----------------|-----------------|
D|-----------------|-----------------|
A|-5-5-----3-3-----|-5-------3---3-4-|
E|-------5-------5-|-------5---5-----|
   1 + 2 + 3 + 4 +   1 + 2 + 3 + 4 +


************************************

| /   slide up
| \   slide down

************************************

            
            
Suggest correction
Creating personal tab
Creating personal tab
You can edit any tab online and save it as your Personal.

You can edit, replace or remove any tab part or add personal notes – all changes will be seen only by you.

Personal tabs can be accessed anytime from any device, even offline.
Learn more »
Give kudos to tab author, rate the tab!
1 2 3 4 5
comments
print report bad tab
guest
You may want to rate the tab now too:
select rating
Wanna post a correction for this tab? Suggest correction