Oops, an error
Loading. Please wait.
370 views 9 this week
no commentswrite comment
1 2 3 4 5
x 4
add to favorites
×
Save as Personal and add changes to this tab that will be seen only by you. Learn more ›
×
You can save this tab as Personal to edit and correct it or add notes. All changes will be seen only by you. Learn more »
launch autoscroll
font size
0
reset
guitar tuner
edit
Autoscroll
slow
fast
+/-
esc
set tempo
stop
Author
Difficulty
-----------------------------------------------------------------------------
                                          Artist - Captain Beefheart 
                                         ****************************
                                             Song - Autumn Child    
                                            **********************
                                          Album - Safe As Milk (1967)  
                                         *****************************
                                             Tabbed By - Ayreon77
                                            **********************
-----------------------------------------------------------------------------
Tuning = Standard



INTRO
******
G|-------|-------|-------|-----9-|---------|
D|-7-7-7-|-7-7-7-|-7-7-7-|-7-7---|------12-|
A|-------|-------|-------|-------|---------|
E|-------|-------|-------|-------|---------|


G|-9-9-9-------9-11----|-----7---|-----7---|-----7---|
D|-------9-9-9------12-|---7---7-|---7---7-|---7---7-|
A|---------------------|-5-------|-5-------|-5-------|
E|---------------------|---------|---------|---------|


------------------------------------
00:19
CHORUS
*******
  Go BACK.......              Go BACK.......
G|-------------|-------------|-------------|-------------|
D|-------------|-------------|-------------|-------------|
A|-7-7--7--5-7-|-7-5--5----5-|-7-7--7--5-7-|-7-5--5----5-|
E|-------------|---------8---|-------------|---------8---|

00:31
G|-----7---|-----7---|-----7---|-----7---|
D|---7---7-|---7---7-|---7---7-|---7---7-|
A|-5-------|-5-------|-5-------|-5-------|
E|---------|---------|---------|---------|

00:37
  Autumn's child......
G|--------|--------|-9-9-9-------9-11----|
D|--------|--------|-------9-9-9------12-|
A|-7-7--7-|-5-5--5-|---------------------|
E|--------|--------|---------------------|


------------------------------------
00:47
VERSE 1
********
  Autumn's child got a loophole......     Halo rings her head
G|-----9---|-----9---|-----9---|-----9---|-----7---|-----7---|-----7---|-----7---|
D|---9---9-|---9---9-|---9---9-|---9---9-|---7---7-|---7---7-|---7---7-|---7---7-|
A|-7-------|-7-------|-7-------|-7-------|-5-------|-5-------|-5-------|-5-------|
E|---------|---------|---------|---------|---------|---------|---------|---------|

  Corn husk hair makes......              A cat's fare meets......
G|-----9---|-----9---|-----9---|-----9---|-----7---|-----7---|-----7---|-----7---|
D|---9---9-|---9---9-|---9---9-|---9---9-|---7---7-|---7---7-|---7---7-|---7---7-|
A|-7-------|-7-------|-7-------|-7-------|-5-------|-5-------|-5-------|-5-------|
E|---------|---------|---------|---------|---------|---------|---------|---------|

  Gonna be my wife..........              Ohh she's gonna be my wife........
G|-----9---|-----9---|-----9---|-----9---|-----7---|-----7---|-----7---|-----7---|
D|---9---9-|---9---9-|---9---9-|---9---9-|---7---7-|---7---7-|---7---7-|---7---7-|
A|-7-------|-7-------|-7-------|-7-------|-5-------|-5-------|-5-------|-5-------|
E|---------|---------|---------|---------|---------|---------|---------|---------|


------------------------------------
01:26
CHORUS
*******
  Go BACK.......              Go BACK.......
G|-------------|-------------|-------------|-------------|
D|-------------|-------------|-------------|-------------|
A|-7-7--7--5-7-|-7-5--5----5-|-7-7--7--5-7-|-7-5--5----5-|
E|-------------|---------8---|-------------|---------8---|


------------------------------------
01:38
BREAK
G|-------15----|-------------|-------15----|-------------|
D|-17-17----17-|-17-17-15-17-|-17-17----17-|-17-17-15-17-|
A|-------------|-------------|-------------|-------------|
E|-------------|-------------|-------------|-------------|


G|-------------|-------------|-------------|-------------|
D|-------15----|-------------|-------15----|-------------|
A|-17-17----17-|-17-17-15-17-|-17-17----17-|-17-17-15-17-|
E|-------------|-------------|-------------|-------------|

------------------------------------
01:45
BRIDGE
*******
  Harvest moon be nimble
G|-------15----|-------------|-------15----|-------------|
D|-17-17----17-|-17-17-15-17-|-17-17----17-|-17-17-15-17-|
A|-------------|-------------|-------------|-------------|
E|-------------|-------------|-------------|-------------|

  Apples dunk and tremble
G|-------------|-------------|-------------|-------------|
D|-------15----|-------------|-------15----|-------------|
A|-17-17----17-|-17-17-15-17-|-17-17----17-|-17-17-15-17-|
E|-------------|-------------|-------------|-------------|

  Fish pond streaks love kind
G|-------15----|-------------|-------15----|-------------|
D|-17-17----17-|-17-17-15-17-|-17-17----17-|-17-17-15-17-|
A|-------------|-------------|-------------|-------------|
E|-------------|-------------|-------------|-------------|

  Found the child I had to find
G|-------------|-------------|-------------|-------------|
D|-------15----|-------------|-------15----|-------------|
A|-17-17----17-|-17-17-15-17-|-17-17----17-|-17-17-15-17-|
E|-------------|-------------|-------------|-------------|

02:00
Slows Down
  Apples shine share together       Got the time to make her mine
G|---------15-----|----------------|----------------|----------------|
D|-17--17------17-|-17--17--15--17-|---------15-----|----------------|
A|----------------|----------------|-17--17------17-|-17--17--15--17-|
E|----------------|----------------|----------------|----------------|

02:12
  Fish pond streaks love kind
G|-12----------|-12----------|-12----------|-12----------|
D|----12----12-|----12----12-|----12----12-|----12----12-|
A|-------14----|-------14----|-------14----|-------14----|
E|-------------|-------------|-------------|-------------|

  Found the child I had to find
G|-11----------|-11----------|-11----------|-11----11-------|
D|----12----12-|----12----12-|----12----12-|----12----12----|
A|-------12----|-------12----|-------12----|-------------12-|
E|-------------|-------------|-------------|----------------|


------------------------------------
02:26
BREAK
******
G|-----------|-------------|
D|-----------|---------4---|
A|-7-7-7-5---|-7-5-5-7---5-|
E|---------7-|-------------|


------------------------------------
02:31
VERSE 2
********
  Autumn's child, I met her.....          Ohh She caught me with the beauty queen
G|-----9---|-----9---|-----9---|-----9---|-----7---|-----7---|-----7---|-----7---|
D|---9---9-|---9---9-|---9---9-|---9---9-|---7---7-|---7---7-|---7---7-|---7---7-|
A|-7-------|-7-------|-7-------|-7-------|-5-------|-5-------|-5-------|-5-------|
E|---------|---------|---------|---------|---------|---------|---------|---------|

  With jade green eyes......              Buttons and bows and fancy ties
G|-----9---|-----9---|-----9---|-----9---|-----7---|-----7---|-----7---|-----7---|
D|---9---9-|---9---9-|---9---9-|---9---9-|---7---7-|---7---7-|---7---7-|---7---7-|
A|-7-------|-7-------|-7-------|-7-------|-5-------|-5-------|-5-------|-5-------|
E|---------|---------|---------|---------|---------|---------|---------|---------|

  The feet of dust under trees of rust    Make them sandals gambol under knees of trust
G|-----9---|-----9---|-----9---|-----9---|-----7---|-----7---|-----7---|-----7---|
D|---9---9-|---9---9-|---9---9-|---9---9-|---7---7-|---7---7-|---7---7-|---7---7-|
A|-7-------|-7-------|-7-------|-7-------|-5-------|-5-------|-5-------|-5-------|
E|---------|---------|---------|---------|---------|---------|---------|---------|

  Gonna be my wife.........               Gonna be my wife........
G|-----9---|-----9---|-----9---|-----9---|-----7---|-----7---|-----7---|-----7---|
D|---9---9-|---9---9-|---9---9-|---9---9-|---7---7-|---7---7-|---7---7-|---7---7-|
A|-7-------|-7-------|-7-------|-7-------|-5-------|-5-------|-5-------|-5-------|
E|---------|---------|---------|---------|---------|---------|---------|---------|


------------------------------------
03:23
CHORUS
*******
  Go BACK.......              Go BACK.......
G|-------------|-------------|-------------|-------------|
D|-------------|-------------|-------------|-------------|
A|-7-7--7--5-7-|-7-5--5----5-|-7-7--7--5-7-|-7-5--5----5-|
E|-------------|---------8---|-------------|---------8---|

03:36
G|-----7---|-----7---|-----7---|-----7---|
D|---7---7-|---7---7-|---7---7-|---7---7-|
A|-5-------|-5-------|-5-------|-5-------|
E|---------|---------|---------|---------|

  Autumn's child    Autumn's child
G|--------|--------|--------|--------|-------------|-7----------|
D|--------|--------|--------|--------|-------------|----7-------|
A|-7-7--7-|-5-5--5-|-7-7--7-|-5-5--5-|-7-7--9-9--5-|-------9--5-|
E|--------|--------|--------|--------|-------------|------------|



ENJOY...........

            
            
Suggest correction
Creating personal tab
Creating personal tab
You can edit any tab online and save it as your Personal.

You can edit, replace or remove any tab part or add personal notes – all changes will be seen only by you.

Personal tabs can be accessed anytime from any device, even offline.
Learn more »
comments
print report bad tab
guest
You may want to rate the tab now too:
select rating
Wanna post a correction for this tab? Suggest correction