Oops, an error
Loading. Please wait.
307 views 3 this week
no commentswrite comment
1 2 3 4 5
x 4
add to favorites
×
Save as Personal and add changes to this tab that will be seen only by you. Learn more ›
×
You can save this tab as Personal to edit and correct it or add notes. All changes will be seen only by you. Learn more »
launch autoscroll
font size
0
reset
guitar tuner
edit
Autoscroll
slow
fast
+/-
esc
set tempo
stop
Author
Difficulty
--------------------------------------------------------------------------
                                          Artist - Captain Beefheart
                                         ****************************
                                              Song - Call On Me    
                                             *******************
                                          Album - Safe As Milk (1967) 
                                         *****************************
                                             Tabbed By - Ayreon77
                                            **********************
--------------------------------------------------------------------------
Tuning = Standard             



INTRO
******
G|-------------|--------------|
D|-------------|--------------|
A|-5--7-5------|-5--7-5---5---|
E|--------5--5-|--------5---5-|


-----------------
00:08
VERSE 1
********
  Call on me whenever you’re lonely and blue
G|-------------|--------------|----------|-------------------|
D|-------------|--------------|----------|------s--7-5---5---|
A|-5--7-5------|-5--7-5---5---|-3--3-3-3-|-2-0-5\7-----7---7-|
E|--------5--5-|--------5---5-|----------|-------------------|

  In my house whenever you need me to call on you
G|--------------|--------------|----------|-------------------|
D|--------------|--------------|----------|------s--7-5---5---|
A|-5--7-5---5---|-5--7-5---5---|-3--3-3-3-|-2-0-5\7-----7---7-|
E|--------5---5-|--------5---5-|----------|-------------------|


-----------------
00:24
CHORUS
*******
  At any time baby that you need love.......................
G|-----------|-----------|-----------|-----------|-----------|-------------|---------------------|
D|-----------|-----------|-----------|-----------|-----------|-------------|-4--3--2-----4--3--2-|
A|---2-3-4-5-|-0-4-5-6-7-|---2-3-4-5-|-0-4-5-6-7-|---2-3-4-5-|-----------5-|----------5----------|
E|-3---------|-----------|-3---------|-----------|-3---------|-0--0-5--5---|---------------------|


-----------------
00:44
BREAK
******
G|-------------|--------------|
D|-------------|--------------|
A|-5--7-5------|-5--7-5---5---|
E|--------5--5-|--------5---5-|


-----------------
00:48
VERSE 2
********
  I’ll be there most any time of day call on me
G|-------------|--------------|----------|-------------------|
D|-------------|--------------|----------|------s--7-5---5---|
A|-5--7-5------|-5--7-5---5---|-3--3-3-3-|-2-0-5\7-----7---7-|
E|--------5--5-|--------5---5-|----------|-------------------|

  To see you baby in the same old loving way call on me
G|--------------|--------------|----------|-------------------|
D|--------------|--------------|----------|------s--7-5---5---|
A|-5--7-5---5---|-5--7-5---5---|-3--3-3-3-|-2-0-5\7-----7---7-|
E|--------5---5-|--------5---5-|----------|-------------------|


-----------------
01:04
CHORUS
*******
  If in the night you call and I’m away......................
G|-----------|-----------|-----------|-----------|-----------|-------------|
D|-----------|-----------|-----------|-----------|-----------|-------------|
A|---2-3-4-5-|-0-4-5-6-7-|---2-3-4-5-|-0-4-5-6-7-|---2-3-4-5-|-----------5-|
E|-3---------|-----------|-3---------|-----------|-3---------|-0--0-5--5---|


-----------------
01:17
BREAK
******
G|--------------|--------------|
D|--------------|--------------|
A|-5--7-5---5---|-5--7-5---5---|
E|--------5---5-|--------5---5-|


01:20
VERSE 3
********
  Why I’m so lonely love when you’re way call on me
G|--------------|--------------|----------|-------------------|
D|--------------|--------------|----------|------s--7-5---5---|
A|-5--7-5---5---|-5--7-5---5---|-3--3-3-3-|-2-0-5\7-----7---7-|
E|--------5---5-|--------5---5-|----------|-------------------|

  And if I should ever call on you I want you to call on me always
G|--------------|--------------|----------|-------------------|
D|--------------|--------------|----------|------s--7-5---5---|
A|-5--7-5---5---|-5--7-5---5---|-3--3-3-3-|-2-0-5\7-----7---7-|
E|--------5---5-|--------5---5-|----------|-------------------|


-----------------
01:36
CHORUS
******* 
  I hope your love will always be so true.................
G|-----------|-----------|-----------|-----------|-----------|-------------|
D|-----------|-----------|-----------|-----------|-----------|-------------|
A|---2-3-4-5-|-0-4-5-6-7-|---2-3-4-5-|-0-4-5-6-7-|---2-3-4-5-|-----------5-|
E|-3---------|-----------|-3---------|-----------|-3---------|-0--0-5--5---|


-----------------
FUNKY PART
***********                                             repeat and fade out........And then fade back in
G|-----------------|-----------------|---------------------|---------------------|---------------------|
D|-----------------|-----------------|---------------------|---------------------|---------------------|
A|-5---3---5---3-5-|-5---3---5---3-5-|-5-5-5---3---5---3-5-|-5-5-5---3---5---3-5-|-5-5-5---3---5---3-5-|
E|---5---5---5-----|---5---5---5-----|-------5---5---5-----|-------5---5---5-----|-------5---5---5-----|



ENJOY..........
Suggest correction
Creating personal tab
Creating personal tab
You can edit any tab online and save it as your Personal.

You can edit, replace or remove any tab part or add personal notes – all changes will be seen only by you.

Personal tabs can be accessed anytime from any device, even offline.
Learn more »
comments
print report bad tab
guest
You may want to rate the tab now too:
select rating
Wanna post a correction for this tab? Suggest correction