Oops, an error
Loading. Please wait.

Diddy Wah Diddy Bass Tab

10 views 10 this week
no commentswrite comment
1 2 3 4 5
3 more votes to show rating
add to favorites
launch autoscroll
font size
0
reset
guitar tuner
Autoscroll
slow
fast
+/-
esc
set tempo
stop
Help us to improve Ultimate-Guitar.com Take our survey!
×
Author
Difficulty
novice
[Intro]

G|------------------------------------------------------------------------|
D|------------------------------------------------------------------------|
A|--1/3----1-----1------1/3----1------1------1/3----1------1----------3~--|
E|------1---4-1----4-1------1----4-1----4-1------1----4-1----4-1--1/4-----|

[Verse]

G|-----------------------------------------------------------------------|
D|-----------------------------------------------------------------------|
A|----1-------------------1-------------------1-------------------1------|
E|--4---4-1-1-1-1-1-1-1-4---4-1-1-1-1-1-1-1-4---4-1-1-1-1-1-1-1-4---4-1--|

[Chorus]

G|------------------------------------------------------------------------|
D|------------------------------------------------------------------------|
A|--1/3----1-----1------1/3----1------1------1/3----1------1----------3~--|
E|------1---4-1----4-1------1----4-1----4-1------1----4-1----4-1--1/4-----|

[Verse]

G|-----------------------------------------------------------------------|
D|-----------------------------------------------------------------------|
A|----1-------------------1-------------------1-------------------1------|
E|--4---4-1-1-1-1-1-1-1-4---4-1-1-1-1-1-1-1-4---4-1-1-1-1-1-1-1-4---4-1--|

[Chorus]

G|------------------------------------------------------------------------------|
D|---------1---1------1-----------------------------------1------1--------------|
A|--0-0-1----1---4-1----4-1--1/33----1------1------0-0-1----4-1----4-1------3~--|
E|--------------------------------1----4-1----4-1-----------------------1/4-----|

[Pre-Chorus]

G|---------------------------------|
D|---------------------------------|
A|----1----------1----------1------|
E|--4---4-1----4---4-1----4---4-1--|

[Solo]

G|------------------------------------------------------------------------|
D|------------------------------------------------------------------------|
A|--1/3----1-----1------1/3----1------1------1/3----1------1----------3~--|
E|------1---4-1----4-1------1----4-1----4-1------1----4-1----4-1--1/4-----|

[Verse]

G|-----------------------------------------------------------------------|
D|-----------------------------------------------------------------------|
A|----1-------------------1-------------------1-------------------1------|
E|--4---4-1-1-1-1-1-1-1-4---4-1-1-1-1-1-1-1-4---4-1-1-1-1-1-1-1-4---4-1--|

[Chorus]

G|------------------------------------------------------------------------------|
D|---------1---1------1-----------------------------------1------1--------------|
A|--0-0-1----1---4-1----4-1--1/33----1------1------0-0-1----4-1----4-1------3~--|
E|--------------------------------1----4-1----4-1-----------------------1/4-----|

[Outro]

G|-------------------------------------------------------------------------------------|
D|-------------------------------------------------------------------------------------|
A|--1/3----1-----1------1/3----1------1------1/3----1------1------1/3----1------1------|
E|------1---4-1----4-1------1----4-1----4-1------1----4-1----4-1------1----4-1----4-1--|

G|------------------------------------------------|
D|------------------------------------------------|
A|--1/3----1-----1------1/3----1------1------1/3--| < FADES OUT >
E|------1---4-1----4-1------1----4-1----4-1-------|



************************************

| /   Slide up
| \   Slide down
| ~   Vibrato

************************************
Suggest correction
Give kudos to tab author, rate the tab!
1 2 3 4 5
comments
print report bad tab
guest
You may want to rate the tab now too:
select rating
Wanna post a correction for this tab? Suggest correction