Oops, an error
Loading. Please wait.
223 views 6 this week
no commentswrite comment
1 2 3 4 5
x 4
add to favorites
×
Save as Personal and add changes to this tab that will be seen only by you. Learn more ›
×
You can save this tab as Personal to edit and correct it or add notes. All changes will be seen only by you. Learn more »
launch autoscroll
font size
0
reset
guitar tuner
edit
Autoscroll
slow
fast
+/-
esc
set tempo
stop
Author
Difficulty
--------------------------------------------------------------------------
                                          Artist - Captain Beefheart
                                         ****************************
                                               Song - I'm Glad    
                                              *****************
                                         Album - Safe As Milk (1969) 
                                        *****************************
                                             Tabbed By - Ayreon77
                                            **********************
--------------------------------------------------------------------------
Tuning = Standard             



INTRO
******
G|----------|
D|--s--7--s-|
A|-7\9---9\-|
E|----------|


------------------
VERSE 1
********
  (so sad baby)                           (so glad girl)              When you
G|-----------|------------------|-------|-----------|------------------|-------|
D|---------7-|-7--------------9-|---7---|---------7-|-7--------------9-|---7---|
A|-0--4--7---|-----------5--9---|-7---7-|-0--4--7---|-----------5--9---|-7---7-|
E|-----------|---5-6-7----------|-------|-----------|---5-6-7----------|-------|

  first came round I was sad        My head hung down I felt really bad
G|-----------|------------------|-------|-----------|------------------|---|
D|---------7-|-7--------------9-|---7---|---------7-|-7--------------9-|-7-|
A|-0--4--7---|-----------5--9---|-7---7-|-0--4--7---|-----------5--9---|---|
E|-----------|---5-6-7----------|-------|-----------|---5-6-7----------|---|

  Now I’m glad, glad about the good times that we’ve had
G|----------|--------|-------------|-------|
D|----------|--------|-------------|---7---|
A|----------|---4--4-|-4-5--5--6-7-|-7---7-|
E|-5-6-7--7-|-7------|-------------|-------|


------------------
VERSE 2
********                                            
  (so sad baby)                          (so sad baby)
                                            Walked in the park    kissed in the dark
G|-----------|------------------|-------|-----------|------------------|-------|
D|---------7-|-7--------------9-|---7---|---------7-|-7--------------9-|---7---|
A|-0--4--7---|-----------5--9---|-7---7-|-0--4--7---|-----------5--9---|-7---7-|
E|-----------|---5-6-7----------|-------|-----------|---5-6-7----------|-------|

  (so glad girl) 
  leaves burned just like just like a spark
G|-----------|------------------|---|
D|---------7-|-7--------------9-|-7-|
A|-0--4--7---|-----------5--9---|---|
E|-----------|---5-6-7----------|---|

  Now I’m glad, glad about the good times that we’ve had
G|----------|--------|-------------|-------|
D|----------|--------|-------------|---7---|
A|----------|---4--4-|-4-5--5--6-7-|-7---7-|
E|-5-6-7--7-|-7------|-------------|-------|

  (so sad baby)
G|-----------|------------------|
D|---------7-|-7--------------9-|
A|-0--4--7---|-----------5--9---|
E|-----------|---5-6-7----------|


------------------
01:35
BRIDGE
*******
G|----------------|-----|
D|-7--6--5--4---4-|-4---|
A|----------------|---5-|
E|----------------|-----|X10


------------------
BREAK
******
G|----------|
D|--s--7--s-|
A|-7\9---9\-|
E|----------|


------------------
02:24
VERSE 3
********
  (so sad baby)                                   (so glad girl)
    Sun passed behind a cloud  I felt so proud   We walk down the street people smile that we meet
G|-----------|------------------|-------|-----------|------------------|---|
D|---------7-|-7--------------9-|---7---|---------7-|-7--------------9-|-7-|
A|-0--4--7---|-----------5--9---|-7---7-|-0--4--7---|-----------5--9---|---|
E|-----------|---5-6-7----------|-------|-----------|---5-6-7----------|---|

  Now I’m glad, glad about the good times that we’ve had
G|----------|--------|-------------|-------|
D|----------|--------|-------------|---7---|
A|----------|---4--4-|-4-5--5--6-7-|-7---7-|
E|-5-6-7--7-|-7------|-------------|-------|

  (so sad baby)                          (so glad girl)
                       You said I was the best man that you’ve ever had oh!
G|-----------|------------------|-------|-----------|------------------|-------|
D|---------7-|-7--------------9-|---7---|---------7-|-7--------------9-|---7---|
A|-0--4--7---|-----------5--9---|-7---7-|-0--4--7---|-----------5--9---|-7---7-|
E|-----------|---5-6-7----------|-------|-----------|---5-6-7----------|-------|
 
  (so sad baby)                         
G|-----------|------------------|-------------|
D|---------7-|-7--------------9-|-7--6--5--4--|
A|-0--4--7---|-----------5--9---|-------------|
E|-----------|---5-6-7----------|-------------|



ENJOY.......

            
            
Suggest correction
Creating personal tab
Creating personal tab
You can edit any tab online and save it as your Personal.

You can edit, replace or remove any tab part or add personal notes – all changes will be seen only by you.

Personal tabs can be accessed anytime from any device, even offline.
Learn more »
comments
print report bad tab
guest
You may want to rate the tab now too:
select rating
Wanna post a correction for this tab? Suggest correction