Oops, an error
Loading. Please wait.

Peon tab

version 2
version 2

Whole song

  • The focus of 'Peon' is the rhythm. Based off the o... Show more
88 views 12 this week
1 commentread comment
1 2 3 4 5
x 3
add to favorites
×
Save as Personal and add changes to this tab that will be seen only by you. Learn more ›
×
You can save this tab as Personal to edit and correct it or add notes. All changes will be seen only by you. Learn more »
launch autoscroll
font size
0
reset
how to read this tab
guitar tuner
edit
Autoscroll
slow
fast
+/-
esc
set tempo
stop
Author
Difficulty
-----------------------------------------------------------------
PEON - Captain Beefheart & The Magic Band
-----------------------------------------------------------------
Tabbed by: Regio Kalliper
Email: micealcwilson@gmail.com

Tuning: Standard 

Off an album: ~~Lick my Decals off, Baby~~

Get a mate to bring round his bass to play this one with ya

e|--15-------------------15-------------------------------0---0--------------|
B|-----------------8~------------------8-8-8-8-8-8-8-8--6-5---0--------------|
G|----14----16-14--7~------14--12-12---5-5-5-5-5-7-7-7-----------------------|
D|----12---------------------------------------------------------------------|
A|----------14-----5~------------------8-8-8-8-8-7-7-7-----------------------|
E|----------0------------------------------------------------0---------------|

e|--0------------------------------------------------------------------------|
B|-----10--12-12-12-12-12--------------------------6-6-6---------------------|
G|---10--------------------10-10-10--10-12-10-12---5-5-5-9-7-7~--------------|
D|---------12-12-12-12-12--10-10-10--10-10-10-10---0-0-0-7-7-7~--------------|
A|---------10-10-10-10-10--0--0--0-----------------0-0---5-5-5~--------------|
E|-------------------------10-10-10--10-10-10-10-------7---------------------|

e|--8------8------------------------13----------------------13---------------|
B|---10-10--10-8----------------5-----13-12-12-12-12-12-10----13-10---13-12--|
G|----------------10-9-9-7-7-7-5~--------------------------------------------|
D|---------------------7-----5-----------12-12-12-12-12-10-------10---12-12--|
A|------8------7-------5-----3-----------10-10-10-10-10-8--------8----10-10--|
E|---------------------------------------------------------------------------|

e|--------------------------------------------------------13-----------------|
B|--12-12--12-12-10-12--10~---10-10-10-10-10-10-10-8--------13---------------|
G|----------------------9~----9--7--7--7--7--7--7---7-7~---------------------|
D|--12-12--12-12-12-12-------------------------------------------------------|
A|--10-10--10-10-10-10--7~----7--10-10-10-10-10-10----10~--------------------|
E|---------------------------------------------------------------------------|

e|-----------------------------------------------13-10-----------------------|
B|--12-12-10-12-12-12-12-10-12-10-10-10----------------12-12/10-10-12-8--8-8-|
G|--------------------------------------12--12-------------------------------|
D|--12-12-12-12-12-12-12-12-12-10-10-10-10--10-------------------------------|
A|--10-10-10-10-10-10-10-10-10-8--8--8--10--8--------------------------------|
E|---------------------------------------------------------------------------|

e|------------------------------------------0-----------1-0---0--------------|
B|--6-8-8-8-8-8-8-8/10-10-6-6-6-5-5--5-5-5--3---3--1--------3---1------------|
G|----------------------------------5-5-5-5-----2--0--0-2-0---0-0------------|
D|----------------------------------------------------------3----------------|
A|--------------------------------------------------------------3------------|
E|---------------------------------------------------------------------------|

e|--3-0-0-3-0-----------------5-3-3-3-1-1-0-0-3-0---0-0-0-0-0-3--0-0-3-0---0-|
B|--1-1-1-1-1-3-3--1-3-3-3-1----------------0----1-3-------------0-0-0-0-3-0-|
G|------------0-0--0-0-0-0-0------0-0-0-0-0-1-------0-0-0-0-0-0--4-4-4-4---4-|
D|------------0---------------3-2-2-2-2-2-2-2--------------------2-2-2-2---2-|
A|--3-3-3-3-3---3--3-2-0----------------------------3-3-3-3-3-3--------------|
E|-----------------------3-3---------------------------------------------1---|

1:15
e|---------------------------------------3~----------------------------------|
B|--3-3-1-1-1-1-0-0-0-0---1-1-1-3-0-1-1--------------------------------------|
G|--0-0-0-0-0-0-0-0-0-0-2----------------------------------------------------|
D|--2-2-2-2-2-0-2-2-2-2---2-2-2-2-2-2-2--------------------------------------|
A|---------------------------------------------------------------------------|
E|---------------------------------------------------------------------------|

e|--15-----------------------------------7-7-7-7-7--8-8-8--------------------|
B|-----12-12-10-10-10-------------------------------8-8-8-10-10-10-10-8-8----|
G|-----12-12-10-10-10-12-12-10-12-10-12--7-7-7-7-7--7-7-7-9--9--9--9--9-9----|
D|-----12-12-10-10-10-10-10-10-10-10-10--------------------------------------|
A|-----10-10-8--8--8--8--8--8--8--8--8---7-7-7-7-7--7-7-7-7--7--7--7--7-7----|
E|---------------------------------------0-0-0-0-0---------------------------|

e|-------------------------------------------------3-3-3---------------------|
B|-----------------10-12-10---------------8--8--8--3-3-3--6--6-6/5-5---------|
G|--10-10-10-10-12-10-10-10-10-10-12-12---7--7--7--0-0-0--3--3-3-------------|
D|--10-10-10-10-10-10-10-10-10-10-10-10------------0-0-0---------------------|
A|--8--8--8--8--8--8--8--8--8--8--8--8----5--5--5----------------------------|
E|--------------------------------------------------------3--3-3---3---------|

e|--0-0-0---0-----------0~-0-0-1---0-0-0-1---000-1---0-----------------------|
B|--0-----3---3-1-1-1-3-0~-1-1-1-3-1-1-1---3-111---3-1---3-1-----------------|
G|----0-------------------------------------------------------2-0--0---------|
D|-------------------------0-0-0-0-0-0-------000-----0-----------------------|
A|----------------------3~-------------------------------3-------------------|
E|--1-1-1-1---1-1-1-1-------------------------------------------3--3---------|

e|------------------------------10---------------0-0----8--3-3-3-3-----------|
B|-----------------------------(10)-10-10-8----------3-------------6-5-3-3-3-|
G|--0-0-0-0-0-0------------------------------10------0-----0-0-0-0-0-0-0-0-0-|
D|--3-3-3-2-2-0-0-0---2-0~----------10-10-10-10--0-0-------5-5-5-5-5-5-5-5-5-|
A|-------------3-3-3--2~------------8--8--8--8-------------------------------|
E|-----------------------------------------------3-3-3-----3-3-3-3-3-3-3-3-3-|

e|---------------------0~----------------------------------------------------|
B|--1-1-1-1-1--1-1-1-3-------------------------------------------------------|
G|--2-2-2-2-2--2-2-2-2-------------------------------------------------------|
D|---------------------3~----------------------------------------------------|
A|--0-0-3-0-0----------------------------------------------------------------|
E|-------------1-1-1-1-------------------------------------------------------|

e|--17--17--17--17--17--------17--17--17--17--17--19--17---------------------|
B|--19b-19b-19b-19b-19b-20-20-19b-19b-19b-19b-19b--------17b20b17--16--------|
G|---------------------------------------------------------------------------|
D|---------------------------------------------------------------------------|
A|---------------------------------------------------------------------------|
E|-----(10)-10--10--10-------------------------------------------------------|


e|----15-13-15-13-13-12-----------------------10-------10--------------------|
B|----17-15-17-15-15-13---13-/15---15----12-12----10-12----12-12-12-12-10-12-|
G|---------0---------------------16--16--------------------------------------|
D|---------------------------------------------------------------------------|
A|--0--------------------0--------------10-10-10-10-10-10-10-10-10-10-10-10--|
E|---------------------------------------------------------------------------|


e|--10-----------------------------------------------------------------------|
B|-----12-12-10-10-8--8~-8-10-6-8--5~--------5--6--3--5--1--0-----3~---------|
G|---------------------------------5~--------------------------2--0~---------|
D|---------------------------------0~-----------------------------0~---------|
A|--10-10-10-10-10----8~-----------------------------------------------------|
E|----------------------------------------------------------------3~---------|


| x   Dead note
| g   Grace note
| (n) Ghost note
| h   Hammer-on
| p   Pull-off
| r   Release
| >   Accented note
| t   Tapping
| b   Bend
| br  Bend release
| pb  Pre-bend
| pbr Pre-bend release
| /   Slide up
| \   Slide down
| ~   Vibrato
| s   Slap
| P   Pop
| PM  Palm mute
| TR  Trill
| N   Tremolo
Suggest correction
Creating personal tab
Creating personal tab
You can edit any tab online and save it as your Personal.

You can edit, replace or remove any tab part or add personal notes – all changes will be seen only by you.

Personal tabs can be accessed anytime from any device, even offline.
Learn more »
Give kudos to tab author, rate the tab!
1 2 3 4 5
comments
print report bad tab
1 comment total.
0 reply
jstuder10 10 4 days ago

Incredible!

guest
You may want to rate the tab now too:
select rating
Wanna post a correction for this tab? Suggest correction