Oops, an error
Loading. Please wait.

This Is The Day bass

118 views 1 this week
no commentswrite comment
1 2 3 4 5
x 4
add to favorites
×
Save as Personal and add changes to this tab that will be seen only by you. Learn more ›
×
You can save this tab as Personal to edit and correct it or add notes. All changes will be seen only by you. Learn more »
launch autoscroll
font size
0
reset
guitar tuner
backing track
0:00
0:00
edit
Autoscroll
slow
fast
+/-
esc
set tempo
stop
Author
Difficulty
--------------------------------------------------------------------------
                                          Artist - Captain Beefheart
                                         ****************************
                                            Song - This Is The Day    
                                           ************************
                                    Album - Unconditionally Guaranteed (1974)
                                   *******************************************
                                             Tabbed By - Ayreon77
                                            **********************
--------------------------------------------------------------------------
Tuning = Standard             


No Bass At INTRO


00:27
G|-------|------------s------|
D|-5-----|-----------4\5-4---|
A|-----5-|-5-7--5-7--------7-|
E|-------|-------------------|


------------------------
VERSE 1
********
  This is the day that love chose to play
G|------------------------------------------------------|
D|-5----------------------------------------------5-4---|
A|---------------------5------------------5-7--7------7-|
E|------------------------------------------------------|

  The day love came to stay                   This kiss is for the first time, And this kiss is for that time 
G|----------------------------9-|-9-7--------|-------------------------------------9-|-9-7--------|
D|----5--------4------------9---|-----9------|-5--------------------4------------9---|-----9------|
A|----------------------7-7-----|-------7--9-|-------------------------------7-7-----|-------7--7-|
E|------------------------------|------------|---------------------------------------|------------|

   Love to ride
G|---------------------9-|-9-----9-----|
D|-5-------4---------9---|---9-----7-7-|
A|---------------7-7-----|-----7-------|
E|-----------------------|-------------|


------------------------
01:03
BREAK
******
G|-----s---|--------------s------|
D|-5--5\---|-------------4\5-5---|
A|-------5-|-5-7--5-7--7-------7-|
E|---------|---------------------|


------------------------
01:11
VERSE 2
*********
  This is the day love chose to play
G|------------------------------------9-|-9----------|
D|-5-------------------4------------9---|---9----7-7-|
A|------------------------------7-7-----|-----7------|
E|--------------------------------------|------------|

   One minute here, one minute there,  Love spent time everywhere
G|--------------------------------------------|---------|
D|-5------------------------------------------|---5-5---|
A|------------------5------------------5-7--7-|-7-----7-|
E|--------------------------------------------|---------|
 
  This day that love chose to stay
G|--------------------------------------|
D|-----5--------4----------------9------|
A|----------------------------7-----7-7-|
E|--------------------------------------|


------------------------
01:33
BREAK
******
G|-----------|
D|-5---------|
A|-----5---7-|
E|-----------|


------------------------
01:40
SOLO 1
*******
G|------|--------|--------|------|--------9-|-9-7-----------|
D|-5----|--------|-5-5----|-5--4-|------9---|------9--------|
A|----5-|-5-7--7-|------7-|------|-7--7-----|--------7--7-9-|
E|------|--------|--------|------|----------|---------------|


G|------|--------9-|-9----------|------|--------9-|-9-7------------|
D|-5--4-|------9---|---9----7-7-|-5--4-|------9---|------9---------|
A|------|-7--7-----|-----7------|------|-7--7-----|---------7--7-9-|
E|------|----------|------------|------|----------|----------------|

02:09
G|------|--------9-|-9-----------|------|--------9-|-9------------|
D|-5--4-|------9---|---9---------|-5--4-|------9---|----9---------|
A|------|-7--7-----|-----7--7--9-|------|-7--7-----|-------7--7-9-|
E|------|----------|-------------|------|----------|--------------|


G|------|----------|---------|------|--------9-|-9----------|
D|-5----|----------|---5-5---|-5--4-|------9---|---9--------|
A|----5-|-5-7--5-7-|-7-----7-|------|-7--7-----|-----7-9-10-|
E|------|----------|---------|------|----------|------------|


G|------|----------|-----------|------|--------9-|-9--------|
D|-5----|----------|---5-5---4-|-5--4-|------9---|---9------|
A|----5-|-5-7--5-7-|-7-----7---|------|-7--7-----|-----7--7-|
E|------|----------|-----------|------|----------|----------|

02:53
G|------|--------9-|-9-----------|------|--------9-|-9-----------|
D|-5----|------9---|---9---------|-5--4-|------9---|---9---------|
A|----5-|-7--7-----|-----7--7--9-|------|-7--7-----|-----7--7--9-|
E|------|----------|-------------|------|----------|-------------|

                                  
G|------|----------|-------|------|
D|-5----|----------|-5-5---|-5--4-|
A|----5-|-5-7--5-7-|-----7-|------|
E|------|----------|-------|------|

03:18
G|---9---9-----9-----9-|-------7----7-----|-----9---9-------9-|---7---7-----7-----|---------|
D|-----------9---9-----|----7---------7---|---9-------9---9---|---------7-----7---|-------5-|
A|-7---7---7-------7---|-5--------5-----5-|-7-----7-----7-----|-5---5-----5-----5-|-7--5----|
E|---------------------|------------------|-------------------|-------------------|---------|


------------------------
03:36
BREAK
******
G|-----9---|-----------|
D|---9-----|---5-5---4-|
A|-7-----7-|-7-----7---|
E|---------|-----------|


------------------------
03:39
VERSE 3
********
   This is the day that love chose to play
G|-------------------------------------------|---------|
D|-5-----------------------------------------|---5-5---|
A|---------------------------5--------5-7--7-|-7-----7-|
E|-------------------------------------------|---------|

   The day love came to stay                  This kiss is for the first time, And this kiss is for that time
G|----------------------------9-|-9-7----------|-------------------------------------------9-|-9----------|
D|-----5--------4-----------9---|-----9--------|-5-------------------4-------------------9---|---9----7-7-|
A|----------------------7-7-----|-------7--7-9-|-------------------------------------7-7-----|-----7------|
E|------------------------------|--------------|---------------------------------------------|------------|

   Love to ride
G|---------------------9-|-9----------|
D|-5-------4---------9---|---9----7-7-|
A|---------------7-7-----|-----7------|
E|-----------------------|------------|


------------------------
04:08
OUTRO
******
G|----------------|------------------|---------|---------------|--------|-----------|
D|-5--5-5---------|------------------|---------|-5--5-5--------|--------|---5-5---4-|
A|---------5-5--5-|-7--7-7---7-7-7-7-|-7-7-7-7-|--------5--5-5-|-7-7--7-|-7-----7---|
E|----------------|------------------|---------|---------------|--------|-----------|

                              Fade Out........................
G|------|----------|---------|------|--------9-|-9-----------|
D|-5----|----------|---5-5---|-5--4-|------9---|---9---------|
A|----5-|-5-7--5-7-|-7-----7-|------|-7--7-----|-----7--7--9-|
E|------|----------|---------|------|----------|-------------|

.................................
G|------|--------9-|-9-----------|
D|-5--4-|------9---|---9---------|
A|------|-7--7-----|-----7--7--9-|
E|------|----------|-------------|



ENJOY...........
Suggest correction
Creating personal tab
Creating personal tab
You can edit any tab online and save it as your Personal.

You can edit, replace or remove any tab part or add personal notes – all changes will be seen only by you.

Personal tabs can be accessed anytime from any device, even offline.
Learn more »
comments
print report bad tab
guest
You may want to rate the tab now too:
select rating
Wanna post a correction for this tab? Suggest correction