Oops, an error
Loading. Please wait.

Veterans Day Poppy tab

712 views 9 this week
1 commentread comment
1 2 3 4 5
x 5
add to favorites
×
Save as Personal and add changes to this tab that will be seen only by you. Learn more ›
×
You can save this tab as Personal to edit and correct it or add notes. All changes will be seen only by you. Learn more »
launch autoscroll
font size
0
reset
how to read this tab
guitar tuner
edit
Autoscroll
slow
fast
+/-
esc
set tempo
stop
Author
Difficulty
[Intro]
Q=104
 3/4                         5/8
(Gtr 1)
  E   E  E E E  E   H.        E S S +E  E E
e|-----------------|---------|---------------|
B|-------10-----10-|-9\------|-----------9-0-|
G|----11------9----|---------|---9-9-(9)-9-0-|
D|-9--------9------|---------|---9-9-(9)-----|
A|-----------------|---------|---7-7-(7)-----|
E|-----------------|---------|-0-------------|

(Gtr 2)
 | H.                H.        H      E
e|-----------------|---------|---------------|
B|-----------------|---------|---------------|
G|-----------------|---------|---------------|
D|-----------------|---------|---------------|
A|-----------------|---------|---------------|
E|-----------------|---------|---------------|
 12/8

  W.                                      W.
e|--------------------------------------|---------------------------------|
B|--------------------------------------|---------------------------------|
G|-7------------------------------------|---------------------------------|
D|-7------------------------------------|---------------------------------|
A|-5------------------------------------|---------------------------------|
E|--------------------------------------|---------------------------------|

 |            ~~~       ~~~       ~~~         ~~~~~~~~~~~~~~~~~~~~~~~~~~~
 | Q    E  S  E.  E  S  E.  E  S  E.  E    S  E.  +E   +Q.     Q.     Q.
e|--------------------------------------|---------------------------------|
B|--------------------------------------|---------------------------------|
G|-8---10-10s12--11-11s12--11-11s12--11-|-11s12--(12)-(12)---/13----/12---|
D|--------------------------------------|---------------------------------|
A|-9---10-10s12--11-11s12--11-11s12--11-|-11s12--(12)-(12)---/13----/12---|
E|--------------------------------------|---------------------------------|
 4/4             12/8                          2/4
  Q   Q   Q  Q    E   Q  E   E E  E  Q  +Q.     +H

e|---------------|-----------------------------|------|
B|---------------|-----------------------------|------|
G|-9---7---6--7--|---^-0----^-0---^0-----------|------|
D|-9---7---6--7--|---^-4----^-4---^4-----------|------|
A|---------------|---^-2--2-----2-----2--(2)---|-(2)--|
E|---------------|-----------------------------|------|

 |                     ~~~    ~~~~~~~~~~
 | Q   Q   Q  Q    E   Q  E   Q    E  Q   Q.     +H
e|---------------|-----------------------------|------|
B|---------------|-----------------------------|------|
G|----11--10-----|---/12----/12---11-10---8----|-(8)--|
D|---------------|-----------------------------|------|
A|----11--10-----|---/12----/12---11-10---9----|-(9)--|
E|---------------|-0------0--------------------|------|

[Vocal Section]
  Q=125
 4/4
  E Q  E Q  Q    Q  Q  Q  E E
e|--------------|--------------|
B|--------------|--------------|
G|--------------|--------------|
D|--------------|----------6h7-|
A|---7----7-----|-7--5--4------|
E|-0----7----7--|--------------|

 | W              W
e|--------------|--------------|
B|--------------|--------------|
G|--------------|--------------|
D|--------------|--------------|
A|--------------|--------------|
E|--------------|--------------|

     E  Q    E  Q   Q      Q  Q  Q  E E
e|----------------------|---------------|
B|----------------------|---------------|
G|----------------------|---------------|
D|----------------------|-----------6h7-|
A|------7-------7-------|--7--5--4------|
E|---0-------7------7---|---------------|

 |      ~~      ~~         ~~
 |   E  Q    E  Q   Q      W
e|----------------------|---------------|
B|----------------------|---------------|
G|----------------------|---------------|
D|-----12------12-------|---------------|
A|-/12-----/12-----12\--|-10------------|
E|----------------------|---------------|

     E  Q    E  Q   Q     Q   Q   Q  E E
e|---------------------|-----------------|
B|---------------------|-----------------|
G|---------------------|-----------------|
D|---------------------|-------------6h7-|
A|------7-------7------|--7---5---4------|
E|---0-------7------7--|-----------------|

|
 |   ~~~~~~~~~~~~~~~~~~~~~~~~~~~~
 |   Q.      Q.     Q     Q   H.
e|---------------------|-----------------|
B|---------------------|-----------------|
G|---------------------|-----------------|
D|---------------------|-----------------|
A|-/12-----/10-----/9--|-/7--/5----------|
E|---------------------|-----------------|

     E  Q    E  Q   Q      Q  Q  Q  E E
e|----------------------|---------------|
B|----------------------|---------------|
G|----------------------|-----------5h6-|
D|----------------------|---------------|
A|------7-------7-------|--7--5--4------|
E|---0-------7------7---|---------------|

 |      ~~      ~~         ~~
 |   E  Q    E  Q   Q      W
e|----------------------|---------------|
B|----------------------|---------------|
G|----------------------|---------------|
D|-----12------12-------|---------------|
A|-/12-----/12-----12\--|-10------------|
E|----------------------|---------------|

     E  Q    E  Q   Q     Q   Q  Q   E  E
e|---------------------|------------------|
B|---------------------|------------------|
G|---------------------|------------------|
D|---------------------|-------------6h=7-|
A|------7-------7------|--7---5--4--------|
E|---0-------7------7--|------------------|

 |   ~~~~~~~~~~~~~~~~~~~~~~~~~~~
 |   Q.      Q.     Q     Q   H      E  E
e|---------------------|------------------|
B|---------------------|------------------|
G|---------------------|------------------|
D|---------------------|------------------|
A|-/12-----/10-----/9--|-/7--/5-----10S11-|
E|---------------------|------------------|
    E  Q  E Q     Q        Q  Q    Q    E E

e|----------------------|--------------------|
B|----------------------|--------------------|
G|----------------------|--------------------|
D|----------------------|----------------6h7-|
A|------7----7----------|---7--5----4--------|
E|---0-----7-------7----|--------------------|

 |      ~~                  ~~~~~~~~~~~~~~~~
 |   E  H        Q    E     H       Q    Q
e|----------------------|--------------------|
B|-----12---------------|---------/14--/13---|
G|----------------------|--------------------|
D|----------------------|--------------------|
A|-/12---------/12S==13-|-/14----------------|
E|----------------------|--------------------|
    E  Q    E  Q    Q        Q   Q  Q   E  E

e|------------------------|-------------------|
B|------------------------|-------------------|
G|------------------------|-------------------|
D|------------------------|--------------6h=7-|
A|------7-------7---------|---7---5--4--------|
E|---0-------7-------7----|-------------------|

 |                      ~~~~~~~~~
 |   E  q    E  q    E  E    +H.         E  E
e|------------------------|-------------------|
B|-/12-----/12-----/12----|-------------------|
G|-----12------12------12-|-(12)--------------|
D|------------------------|-------------------|
A|------------------------|-------------10S11-|
E|------------------------|-------------------|
    E  Q  E Q     Q        Q  Q    Q    E E

e|----------------------|--------------------|
B|----------------------|--------------------|
G|----------------------|--------------------|
D|----------------------|----------------6h7-|
A|------7----7----------|---7--5----4--------|
E|---0-----7-------7----|--------------------|

 |      ~~                  ~~~~~~~~~~~~~~~~
 |   E  H        Q    E     H       Q    Q
e|----------------------|--------------------|
B|-----12---------------|---------/14--/13---|
G|----------------------|--------------------|
D|----------------------|--------------------|
A|-/12---------/12S==13-|-/14----------------|
E|----------------------|--------------------|

     E  Q    E  Q    Q        Q   Q  Q  E   E
e|------------------------|-------------------|
B|------------------------|-------------------|
G|------------------------|-------------------|
D|------------------------|-------------6h==7-|
A|------7-------7---------|---7---5--4--------|
E|---0-------7-------7----|-------------------|

 |                      ~~~~~~~~~
 |   E  q    E  q    E  E    +H.        E   E
e|---------------------12-|-(12)--------------|
B|-/12-----/12-----/12----|-------------9-/10-|
G|-----12------12---------|-------------------|
D|------------------------|-------------------|
A|------------------------|-------------------|
E|------------------------|-------------------|

     E Q   E E Q  E    E E  E  Q    Q   E
e|------------------|---------------------|
B|------------------|---------------------|
G|------------------|---------------------|
D|------------------|---------------------|
A|-----7-----7-7----|--7-7-----7----------|
E|---0-----7------7-|-------7-------0---0-|

 |   E E E E E Q  E    E E  E  E  Q   Q
e|------------------|---------------------|
B|-/10-9-9-7-7-5--9-|-10-9-10-11----------|
G|------------------|---------------------|
D|------------------|---------------------|
A|------------------|------------11S==4---|
E|------------------|---------------------|

   E E E E  E  Q   E    E  E  E Q    Q   E
e|-------------------|---------------------|
B|-------------------|---------------------|
G|-------------------|---------------------|
D|-------------------|---------------------|
A|-----7----7--7-----|--7--7----7----------|
E|-0-0---7---------7-|--------7------0---0-|

 |          ~~~~~~~~~~~~~~~~~~~~
 | E E E E  Q.     E   +Q     Q    E Q.
e|-------------------|---------------------|
B|-------------------|---------------------|
G|-------------------|---------------------|
D|-------4-/7-----/5-|-(5)---/4---/2-0-----|
A|-5-0-4-------------|---------------------|
E|-------------------|---------------------|

                                               2/4
  E E E E   E  Q    E    E E  E Q      Q    E   +H
e|---------------------|-----------------------|----------|
B|---------------------|-----------------------|----------|
G|---------------------|-----------------------|----------|
D|---------------------|-----------------------|----------|
A|-----7-----7--7------|--7-7----7-------------|----------|
E|-0-0---7-----------7-|-------7--------0----0-|-(0)------|

 |              ~~        ~~~~~~~       ~~        ~~~~~~~~
 | H         E  Q    E    Q    Q     E  Q    E    Q    Q
e|---------------------|---------------12------|-12-------|
B|---------------------|-----------/12-----/12-|------12\-|
G|---------------------|-----------------------|----------|
D|-------------12------|-12--------------------|----------|
A|---------/12-----/12-|------12---------------|----------|
E|---------------------|-----------------------|----------|

 Boogie
  Q=164
 4/4
                   |3-|     |3| |3|
    Q    q    Q   +Q  E     Q E Q E   H
e|-----------------------|-----------------|
B|-----------------------|-----------------|
G|-----------------------|-----------------|
D|-----------------------|-----------------|
A|--------7----5---(5)---|-------------7---|
E|---0-----------------5-|---3-0---0-------|

                            ~~~~~~~~~~~~
     Q    Q    Q    Q        H         H
e|-----------------------|-----------------|
B|-----------------------|-----------------|
G|-/17--/17--/17--/17----|-/15-------/15---|
D|-----------------------|-----------------|
A|-/17--/17--/17--/17----|-/15-------/15---|
E|-----------------------|-----------------|
 4/4
                   |3-|     |3| |3|
    Q    q    Q   +Q  E     Q E Q E   H
e|-----------------------|--------------------|
B|-----------------------|--------------------|
G|-----------------------|--------------------|
D|-----------------------|--------------------|
A|--------7----5---(5)---|-------------7------|
E|---0-----------------5-|---3-0---0----------|

 |                           ~~~~~~~~~~~~~
 |   Q    Q    Q    Q        H         Q.   E
e|-----------------------|--------------------|
B|-----------------------|--------------------|
G|-/17--/17--/17--/17----|-/15-------/15------|
D|-----------------------|------------------7-|
A|-/17--/17--/17--/17----|-/15-------/15------|
E|-----------------------|--------------------|
 4/4

                  |--3--|    |-3--| |-3-|
   Q    q    Q   +Q     E    Q    E Q   E H            Q        q        H
e|-------------------------|------------------------|--------------------------|
B|-------------------------|------------------------|--------------------------|
G|-------------------------|------------------------|--------------------------|
D|-------------------------|------------------------|--------------------------|
A|-------7----5---(5)------|---------------7--------|------------7--------5----|
E|--0--------------------5-|--3----0-----0----------|---0----------------------|

         ~~~~~~                ~
                                                      |-3--|   |-3--|
   +Q    E E +Q.       E     +E  Q     E   Q.     E    +Q    E  +Q    E  +H
e|-------------------------|------------------------|--------------------------|
B|--------------------/5---|-(5)-3------------------|--------------------------|
G|---------3-(3)-----------|--------------------/12-|-(12)-/12-(12)-/12-(12)---|
D|-(7)\--3-----------------|-----------3---0--------|--------------------------|
A|-------------------------|--------------------/12-|-(12)-/12-(12)-/12-(12)---|
E|-------------------------|------------------------|--------------------------|
    E(type 2)                    D         E(type 2)
   4/4

(Gtr 1)
e|-----------------------------|-5--(5)----7-(7)-----|
B|o----------------------------|-7--(7)----9-(9)-----|
G|-----------------------------|-7--(7)----9-(9)-----|
D|-----------------------------|-7--(7)----9-(9)-----|
A|o----------------------------|-5--(5)----7-(7)-----|
E|-----------------------------|---------------------|

    Q       Q       Q       Q    Q   E  Q.        Q
e|-----------------------------|---------------------|
B|o----------------------------|---------------------|
G|-----------------------------|---------------------|
D|----------0---------------0--|-----0------------0--|
A|o-----------------0----------|--------0------------|
E|--0--------------------------|-0-------------------|
  E(type 2)                    D         E(type 2)
 4/4

(Gtr 1)
                                   |--3--|
                               Q  +Q     E +q   Q
e|----------------------------|-5--(5)----7-(7)--------|
B|----------------------------|-7--(7)----9-(9)--------|
G|----------------------------|-7--(7)----9-(9)--------|
D|----------------------------|-7--(7)----9-(9)--------|
A|----------------------------|-5--(5)----7-(7)--------|
E|----------------------------|------------------------|

 | Q       Q       Q       Q    Q   E  Q.        E   E
e|----------------------------|------------------------|
B|----------------------------|--------------------/12-|
G|----------------------------|------------------------|
D|---------0---------------0--|-----0------------0-----|
A|-----------------0----------|--------0---------------|
E|-0--------------------------|-0----------------------|
  1.
 4/4
                           |3-|   |3|  |3-|
    Q        q        Q   +Q  E   Q E  Q  E  H
e|-------------------------------|------------------|
B|-------------------------------|------------------|
G|-------------------------------|------------------|
D|-------------------------------|------------------|
A|------------7--------5---(5)---|------------7-----|
E|---0-------------------------5-|-3-0-----0--------|

|   ~~~~~~~~~~~~~~~~~~~~~                    ~~~~~
|   |-3--|   |-3--|
|  +Q    E  +Q    E  +H           Q    E  E  Q  Q
e|-------------------------------|------------------|
B|-(12)-/12-(12)-/12-(12)--------|------------------|
G|-------------------------------|------------------|
D|-------------------------------|-----12S10S12-12--|
A|-------------------------------|-----12S10S12-12--|
E|-------------------------------|------------------|
 4/4

                |3-|     |3|   |3|
  Q   q     Q  +Q  E     Q E   Q E   H
e|--------------------|----------------------|
B|--------------------|----------------------|
G|--------------------|----------------------|
D|--------------------|----------------------|
A|-----7-----5--(5)---|---------------7------|
E|-0----------------5-|---3-0-----0----------|
             ~~
   Q   E  E  H            Q     Q     Q    Q
e|--------------------|----------------------|
B|--------------------|----------------------|
G|--------------------|-/17---/17---/17--/17-|
D|----12S10S12--------|----------------------|
A|----12S10S12--------|-/17---/17---/17--/17-|
E|--------------------|----------------------|
 4/4

                |3-|     |3|   |3|
    Q  q    Q  +Q  E     Q E   Q E   H
e|--------------------|----------------------|
B|--------------------|----------------------|
G|--------------------|----------------------|
D|--------------------|----------------------|
A|------7----5--(5)---|---------------7------|
E|---0--------------5-|---3-0-----0----------|

     ~~~~~~~~~~
     H       H            Q     Q     Q    Q
e|--------------------|----------------------|
B|--------------------|----------------------|
G|-/15-----/15--------|-/17---/17---/17--/17-|
D|--------------------|----------------------|
A|-/15-----/15--------|-/17---/17---/17--/17-|
E|--------------------|----------------------|
 4/4
                 |-3-|    |-3-| |3-|
    Q  q    Q   +Q   E    Q   E Q  E H
e|----------------------|--------------------|
B|----------------------|--------------------|
G|----------------------|--------------------|
D|----------------------|--------------------|
A|------7----5---(5)----|-------------7------|
E|---0----------------5-|--3---0----0--------|

     ~~~~~~~~~~~
     H       Q.       E   +E   Q    H      E
e|----------------------|--------------------|
B|----------------------|--------------------|
G|-/15-----/15----------|--------------------|
D|-------------------/7-|-(7)-/7---/7-----/3-|
A|-/15-----/15----------|--------------------|
E|----------------------|--------------------|
 4/4

                   |-3-|    |-3-| |3-|
   Q     q    Q   +Q   E    Q   E Q  E  H
e|------------------------|--------------------------|
B|------------------------|-------------------------o|
G|------------------------|--------------------------|
D|------------------------|--------------------------|
A|--------7----5---(5)----|--------------7----------o|
E|--0-------------------5-|--3---0----0--------------|

                                        |-3-|
   +E   Q    E Q.       E   +E   Q    E +Q   E  +Q
e|------------------------|--------------------------|
B|------------------------|-------------------------o|
G|------------------------|-----------------12-(12)--|
D|-(3)-/5---/3-0-------/7-|-(7)-/7---/7-(7)-12-(12)--|
A|------------------------|-----------------12-(12)-o|
E|------------------------|-----------------12-(12)--|
 4/4
                         |3-|   |3|  |3-|
   Q       q        Q   +Q  E   Q E  Q  E  H
e|-----------------------------|------------------|
B|-----------------------------|------------------|
G|-----------------------------|------------------|
D|-----------------------------|------------------|
A|----------7--------5---(5)---|------------7-----|
E|--0------------------------5-|-3-0-----0--------|

   ~~~~~~~~~~~~~~~~~~~~                    ~~~~~
   |-3-|   |-3--|
   Q   E  +Q    E  +H           Q    E  E  Q  Q
e|-----------------------------|------------------|
B|-12-/12-(12)-/12-(12)--------|------------------|
G|-----------------------------|------------------|
D|-----------------------------|-----12S10S12-12--|
A|-----------------------------|-----12S10S12-12--|
E|-----------------------------|------------------|
 4/4
                |3-|     |3|   |3|
  Q   q     Q  +Q  E     Q E   Q E   H
e|--------------------|----------------------|
B|--------------------|----------------------|
G|--------------------|----------------------|
D|--------------------|----------------------|
A|-----7-----5--(5)---|---------------7------|
E|-0----------------5-|---3-0-----0----------|

            ~~
   Q   E  E  H            Q     Q     Q    Q
e|--------------------|----------------------|
B|--------------------|----------------------|
G|--------------------|-/17---/17---/17--/17-|
D|----12S10S12--------|----------------------|
A|----12S10S12--------|-/17---/17---/17--/17-|
E|--------------------|----------------------|
 4/4

                |3-|     |3|   |3|
    Q  q    Q  +Q  E     Q E   Q E   H
e|--------------------|----------------------|
B|--------------------|----------------------|
G|--------------------|----------------------|
D|--------------------|----------------------|
A|------7----5--(5)---|---------------7------|
E|---0--------------5-|---3-0-----0----------|

    ~~~~~~~~~~
     H       H            Q     Q     Q    Q
e|--------------------|----------------------|
B|--------------------|----------------------|
G|-/15-----/15--------|-/17---/17---/17--/17-|
D|--------------------|----------------------|
A|-/15-----/15--------|-/17---/17---/17--/17-|
E|--------------------|----------------------|

[Outro]
Q=88
 6/4
   Q    E  E  Q   Q  H      Q    E  E  Q   Q  H
e|-------------------4----|-------------------4---|
B|-----10----10\----------|-----10----10\---------|
G|-----10-10-10\----------|-----10-10-10\---------|
D|--------11------4-------|--------11------4------|
A|------------------------|-----------------------|
E|------------------------|-----------------------|

   E E  E  E  Q   q  H      E E  E  E  Q   q  H
e|------------------------|-----------------------|
B|---------5------5--5----|---------5------5--5---|
G|------5---------5--5----|------5---------5--5---|
D|-5-7--------7---5--5----|-5-7--------7---5--5---|
A|-7-7------------7--7----|-7-7------------7--7---|
E|----------------5--5----|----------------5--5---|
 6/4

   Q    E  E  Q   Q  H      Q    E  E  Q   Q  H
e|-------------------4----|-------------------4---|
B|-----10----10\----------|-----10----10\---------|
G|-----10-10-10\----------|-----10-10-10\---------|
D|--------11------4-------|--------11------4------|
A|------------------------|-----------------------|
E|------------------------|-----------------------|

   E E  E  E  Q   q  H      E E  E  E  Q   q  H
e|------------------------|-----------------------|
B|---------5------5--5----|---------5------5--5---|
G|------5---------5--5----|------5---------5--5---|
D|-5-7--------7---5--5----|-5-7--------7---5--5---|
A|-7-7------------7--7----|-7-7------------7--7---|
E|----------------5--5----|----------------5--5---|
 6/4

   Q   E E Q  S S E H      Q   E E Q  S S E S S E Q
e|-----5-2-5--------0----|-----5-2-5--------------0--|
B|------------4S5p0-0----|------------4S5p0-4S5p0-0--|
G|-----------------------|---------------------------|
D|-----------------------|---------------------------|
A|-----------------------|---------------------------|
E|-----------------------|---------------------------|

   E E E E Q  q     H      E E E E Q  q     H
e|-----------------------|---------------------------|
B|-------5----5-----5----|-------5----5-----5--------|
G|-----5------5-----5----|-----5------5-----5--------|
D|-5-7-----7--5-----5----|-5-7-----7--5-----5--------|
A|-7-7--------7-----7----|-7-7--------7-----7--------|
E|------------5-----5----|------------5-----5--------|
 6/4

   Q    E  E  Q   Q  H      Q    E  E  Q   Q  H
e|-------------------4----|-------------------4---|
B|-----10----10\----------|-----10----10\---------|
G|-----10-10-10\----------|-----10-10-10\---------|
D|--------11------4-------|--------11------4------|
A|------------------------|-----------------------|
E|------------------------|-----------------------|

   E E  E  E  Q   q  H      E E  E  E  Q   q  H
e|------------------------|-----------------------|
B|---------5------5--5----|---------5------5--5---|
G|------5---------5--5----|------5---------5--5---|
D|-5-7--------7---5--5----|-5-7--------7---5--5---|
A|-7-7------------7--7----|-7-7------------7--7---|
E|----------------5--5----|----------------5--5---|
 7/4

   Q  q  q  W
e|----2--2-------|
B|----1--1-------|
G|---------------|
D|---------------|
A|---------------|
E|---------------|

   q  q  q  W
e|-3--3--3-------|
B|-4--4--4-------|
G|---------------|
D|---------------|
A|---------------|
E|---------------|

6/4
  Q      E  E  Q   Q  H      Q    E  E  Q   Q  H
e|--------------------4----|-------------------4--|
B|o-----10----10\----------|-----10----10\--------|
G|------10-10-10\----------|-----10-10-10\--------|
D|---------11------4-------|--------11------4-----|
A|o------------------------|----------------------|
E|-------------------------|----------------------|

    E E  E  E  Q   q  H      E E  E  E  Q   q  H
e|-------------------------|----------------------|
B|o---------5------5--5----|---------5------5--5--|
G|-------5---------5--5----|------5---------5--5--|
D|--5-7--------7---5--5----|-5-7--------7---5--5--|
A|o-7-7------------7--7----|-7-7------------7--7--|
E|-----------------5--5----|----------------5--5--|

6/4
   Q    E  E  Q   Q  H      Q    E  E  Q   Q  H
e|-------------------4----|-------------------4---|
B|-----10----10\----------|-----10----10\---------|
G|-----10-10-10\----------|-----10-10-10\---------|
D|--------11------4-------|--------11------4------|
A|------------------------|-----------------------|
E|------------------------|-----------------------|

   E E  E  E  Q   q  H      E E  E  E  Q   q  H
e|------------------------|-----------------------|
B|---------5------5--5----|---------5------5--5---|
G|------5---------5--5----|------5---------5--5---|
D|-5-7--------7---5--5----|-5-7--------7---5--5---|
A|-7-7------------7--7----|-7-7------------7--7---|
E|----------------5--5----|----------------5--5---|

  6/4
   Q   E E Q  S S E H      Q   E E Q  S S E S S E Q
e|-----5-2-5--------0----|-----5-2-5--------------0--|
B|------------4S5p0-0----|------------4S5p0-4S5p0-0--|
G|-----------------------|---------------------------|
D|-----------------------|---------------------------|
A|-----------------------|---------------------------|
E|-----------------------|---------------------------|

   E E E E Q  q     H      E E E E Q  q     H
e|-----------------------|---------------------------|
B|-------5----5-----5----|-------5----5-----5--------|
G|-----5------5-----5----|-----5------5-----5--------|
D|-5-7-----7--5-----5----|-5-7-----7--5-----5--------|
A|-7-7--------7-----7----|-7-7--------7-----7--------|
E|------------5-----5----|------------5-----5--------|

 6/4
  Q    E  E  Q   Q  H      Q    E  E  Q   Q  H
e|-------------------4----|-------------------4---|
B|-----10----10\----------|-----10----10\---------|
G|-----10-10-10\----------|-----10-10-10\---------|
D|--------11------4-------|--------11------4------|
A|------------------------|-----------------------|
E|------------------------|-----------------------|

  E E  E  E  Q   q  H      E E  E  E  Q   q  H
e|------------------------|-----------------------|
B|---------5------5--5----|---------5------5--5---|
G|------5---------5--5----|------5---------5--5---|
D|-5-7--------7---5--5----|-5-7--------7---5--5---|
A|-7-7------------7--7----|-7-7------------7--7---|
E|----------------5--5----|----------------5--5---|

  7/4                          6/4
   Q  q  q    E E E E H         q  q    E E S S E H
e|----2--2--------------------|-2--2----------------------|
B|----1--1------1-------------|-1--1------1---------------|
G|----------------1-0-1-------|-------------1-0-1-1-------|
D|----------------------------|---------------------------|
A|----------------------------|---------------------------|
E|----------------------------|---------------------------|

   q  q  S E. q   q   S E. q    q  S E. q   q     S E. q
e|-3--3--3-3--3---3---3-3--3--|-3--3-3--3---3-----3-3--3--|
B|-4--4--4-4--4---4---4-4--4--|-4--4-4--4---4-----4-4--4--|
G|----------------------------|---------------------------|
D|----------------------------|---------------------------|
A|----------------------------|---------------------------|
E|----------------------------|---------------------------|

 (6/4)
   q  q    E E E E H         q  q    E E S S E +H
e|-2--2--------------------|-2--2------------------------|
B|-1--1------1-------------|-1--1------1----------------o|
G|-------------1-0-1-------|-------------1-0-1-(1)-------|
D|-------------------------|-----------------------------|
A|-------------------------|----------------------------o|
E|-------------------------|-----------------------------|

   q  S E. q   q   S E. q    q  S E. q   q      S  E. q
e|-3--3-3--3---3---3-3--3--|-3--3-3--3---3------3--3--3--|
B|-4--4-4--4---4---4-4--4--|-4--4-4--4---4------4--4--4-o|
G|-------------------------|-----------------------------|
D|-------------------------|-----------------------------|
A|-------------------------|----------------------------o|
E|-------------------------|-----------------------------|
                                                 H.=H
(6/4)
  Q     E  E  Q    Q  H     (3x)  Q  E  E    Q  Q  H
e|--------------------4-----|-------------------4--*|
B|o-----10----10\----------o|-----10----10\--------*|
G|------10-10-10\-----------|-----10-10-10\--------*|
D|---------11------4--------|--------11------4-----*|
A|o------------------------o|----------------------*|
E|--------------------------|----------------------*|

    E E  E  E  Q   q  H     (3x) E E  E  E  Q   q  H
e|--------------------------|----------------------*|
B|o---------5------5--5----o|---------5------5--5--*|
G|-------5---------5--5-----|------5---------5--5--*|
D|--5-7--------7---5--5-----|-5-7--------7---5--5--*|
A|o-7-7------------7--7----o|-7-7------------7--7--*|
E|-----------------5--5-----|----------------5--5--*|



************************************

| \    Slide down
| (n)  Ghost note
| /    Slide up
| ~    Vibrato
| h    Hammer-on
| p    Pull-off
| *    Natural harmonic

************************************
Suggest correction
Creating personal tab
Creating personal tab
You can edit any tab online and save it as your Personal.

You can edit, replace or remove any tab part or add personal notes – all changes will be seen only by you.

Personal tabs can be accessed anytime from any device, even offline.
Learn more »
comments
print report bad tab
1 comment total.
0 reply
Openmill 10 Nov 08, 2015 02:00 PM

good work!!

guest
You may want to rate the tab now too:
select rating
Wanna post a correction for this tab? Suggest correction