Oops, an error
Loading. Please wait.

Zig Zag Wanderer bass

10,116 views 27 this week
1 commentread comment
1 2 3 4 5
x 5
add to favorites
×
Save as Personal and add changes to this tab that will be seen only by you. Learn more ›
×
You can save this tab as Personal to edit and correct it or add notes. All changes will be seen only by you. Learn more »
launch autoscroll
font size
0
reset
guitar tuner
edit
Autoscroll
slow
fast
+/-
esc
set tempo
stop
Author
G|-9-7-9-7-9-7-9-7-9-7-9-7-----------------|
D|-----------------------------------------|
A|-----------------------------------------|
E|-----------------------------------------|

G|-----9----------4---7---4--------|
D|---9---9------7---7---7---7------|
A|-7--------5----------------------|
E|---------------------------------|

Zig zag wanderer, zig zag wanderer 
G|------7---9---7--------4---7---4----|
D|----9---9---9--------7---7---7---7--|
A|-7---------------5------------------|
E|------------------------------------|

You can huff, you can puff
You'll never blow my house down
You can zig, you can zag
Whoa I'm gonna stay, 
G|------9-----------------------9----------|
D|----9---9---------7--5------9---9---etc--|
A|-7--------5----5-------5/7---------------|
E|-----------------------------------------|

gonna stay around            gonna stay around
G|--------------------------|--------------------------|
D|--------------------------|--------------------------|
A|-5-5—-5-5--5-5--5-5--5-5--|-5-5-5-5-5-5-5-5-5-5-5-5-5|
E|--------------------------|--------------------------|

You can jump, you can holler
Never lose what I found
Heaven's free 'cept for a dollar

You can zig, you can zag
Whoa I'm gonna stay, gonna stay around 

The zig zag wanderer had a zigzag child
Zig zag traveller for the mercy mile
Found his wheels and nature scene
Quenched his thirst, in a way it never been
Zig zag wanderer 
G|--------------------------------------------|
D|--------5---------------------5-------------|
A|------7---5--7--------------7---5--7--------|
E|-0--7----------5--3--0-0--7----------5--3-0-|

You can dance, you can prance
Freeze those timbers, drop some beams
Hide my shield, throw away my lance
G|------9-----------------------9----------|
D|----9---9---------7--5------9---9---etc--|
A|-7--------5----5-------5/7---------------|
E|-----------------------------------------|
 
Zig zag child, mercy mile
G|----------------------------------|
D|----------------------------------|
A|-7-7--5--55--55--7-7-5--55--55----|
E|----------------------------------|
Zig zag dream, zig zag dream
G|----------------------------------|
D|----------------------------------|
A|-7-7-5-----------7-7-5------------|
E|----------------------------------|

G|-9-7-9-7-9-7-9-7-9-7-9-7-----------------|
D|-----------------------------------------|
A|-----------------------------------------|
E|-----------------------------------------|

            
            
Suggest correction
Creating personal tab
Creating personal tab
You can edit any tab online and save it as your Personal.

You can edit, replace or remove any tab part or add personal notes – all changes will be seen only by you.

Personal tabs can be accessed anytime from any device, even offline.
Learn more »
comments
print report bad tab
1 comment total.
0 reply
flaphead325 206 Jan 02, 2011 03:15 PM

I'd say it better with an A here (i heard an A on the guitar)
G|------9-----------------------9----------|
D|----9---9-7-------7--5------9---9---etc--|
A|-7-------------5-------5/7---------------|
E|-----------------------------------------|

Great tab thanks for sharing this its very rare!! :)

guest
You may want to rate the tab now too:
select rating
Wanna post a correction for this tab? Suggest correction