Oops, an error
Loading. Please wait.

Wot bass

709 views 33 this week
no commentswrite comment
1 2 3 4 5
3 more votes to show rating
add to favorites
×
Save as Personal and add changes to this tab that will be seen only by you. Learn more ›
×
You can save this tab as Personal to edit and correct it or add notes. All changes will be seen only by you. Learn more »
launch autoscroll
font size
0
reset
guitar tuner
edit
Autoscroll
slow
fast
+/-
esc
set tempo
stop
Author
(0:37)
G|----------------------------------------------------------------|
D|---------------------------------------------------------0H2----|
A|-----------------2-3-2-0--------5--5--5--5---------0-2-3--------|
E|--5--5--5--5-5-----------3-2-0-------------2-3-3H4-----------5--|

G|---------------------------------------------------------------------|
D|------------------------------------------4H5P4H5P4------------------|
A|--------------2-3-2-0--------5--5--5--4H5-----------5-3--2H3---------|
E|--5--5--5-5-----------3-2-0-------------------------------------3-5--|

G|----------------------------------------------------------------|
D|---------------------------------------------------------0H2----|
A|-----------------2-3-2-0--------5--5--5--5---------0-2-3--------|
E|--5--5--5--5-5-----------3-2-0-------------2-3-3H4-----------5--|

G|-----------------------------------------------------------------------|
D|------------------------------------5H7P5H7P5H7P5----------------------|
A|------------2-3-2-0--------5-5-5—-5---------------5-5P3-5P3-5P3--------|
E|--5--5--5-----------3-2-0---------------------------------------3-4-5--|

(1:15)
G|---------------------------------------------------------------|
D|---------------------------------------------------------------|
A|----------------------------2-3-4-5-3-5-3-5-3-5-3-5-3-5-3-5-3--|
E|--5-3-5-3-5-3-5-3-5-3-5-3-5------------------------------------|

G|-------------------------------------------------------------|
D|-------------------------------------------------------------|
A|----------------------------------2-3-4-5-3-5-3-5-3-5-3-5-3--|
E|--2-3-4-5-3-5-3-5-3-5-3-5-3-5-3-5----------------------------|

G|-----------------------------------------------------------------|
D|-----------------------------------------------------------------|
A|---------------------------------------2-3-4-5-3-5-3-5-3-5-3-5---|
E|--2-3-4-5-3-5-3-5-3-5-3-5-3-5-3-5-3-5----------------------------|

G|---------------------------------|
D|--7-7-5-4-5-4-5-4----------------|
A|------------------5-3-5-3--------|
E|--------------------------3-4-5--|

(1:43)
G|--------------------------------------------------------------------|
D|---------------------------------------------------------------12\--|
A|----------------------------2-3-4-5-3-5-3-5-3-5-3-5-3-5-3-5/12------|
E|--5-3-5-3-5-3-5-3-5-3-5-3-5-----------------------------------------|

G|-------------------------------------------------------------------|
D|--2-2--------------------------------------------------------------|
A|--------------------------------2-3-4-5-3-5-3-5-3-5-3-5-3-5-3-5-5--|
E|------5-3-5-3-5-3-5-3-5-3-5-3-5------------------------------------|

G|----------------------------------------------------7---9---10--|
D|----------------------------------------------------------------|
A|----------------------------2-3-4-5-3-5-3-5-3-5-3-5---7---8---9-|
E|--5-3-5-3-5-3-5-3-5-3-5-3-5-------------------------------------|

[Verse]
(2:15) 
G|----------------------------------------------------------------|
D|----------------------------------------------------------------|
A|-----------------2-3-2-0--------5--5--5--5---------0-2-3-5H7----|
E|--5--5--5--5-5-----------3-2-0-------------2-3-3H4-----------5--|
 
G|------------------------------------------------------------------|
D|-----------------------------------------4H5P4H5P4----------------|
A|--------------2-3-2-0--------5--5--5—4P5-----------5-3---2H3------|
E|--5--5--5-5-----------3-2-0----------------------------5-----3-5--|

G|----------------------------------------------------------------|
D|----------------------------------------------------------------|
A|-----------------2-3-2-0--------5--5--5--5---------0-2-3-5H7----|
E|--5--5--5--5-5-----------3-2-0-------------2-3-3H4-----------5--|

[Verse]
(2:43)
G|------------------------------------|
D|------------------------------------|
A|-------------2-3-2-0--------5--5—5--|
E|--5--5--5—5----------3-2-0----------|

G|---------------------------------------|
D|-----5H7P5H7P5H7P5---------------------|
A|—-5---------------5-5P3-5P3-5P3--------|
E|--------------------------------3-4-5--|

(2:52)
G|---------------------------------------------------------------|
D|---------------------------------------------------------------|
A|----------------------------2-3-4-5-3-5-3-5-3-5-3-5-3-5-3-5-3--|
E|--5-3-5-3-5-3-5-3-5-3-5-3-5------------------------------------|

G|---------------------------------------------------------|
D|---------------------------------------------------------|
A|--------------------------------2-3-4-5-3-5-3-5-3-5-3-5--|
E|--2-3-5-3-5-3-5-3-5-3-5-3-5-3-5--------------------------|

G|----------------------------------------------------------------------|
D|----------------0H2---------------------------------------------------|
A|----------0-2-3------------------------------2-3-4-5-3-5-3-5-3-5-3-5--|
E|--2-3-3H4----------5-3-5-3-5-3-5-3-5-3-5-3-5--------------------------|

G|---------------------------------|
D|--7-7-5-4-5-4-5-4----------------|
A|------------------5-3-5-3--------|
E|--------------------------3-4-5--|

(3:20)
G|--------------------------------------------------------------------|
D|---------------------------------------------------------------12\--|
A|----------------------------2-3-4-5-3-5-3-5-3-5-3-5-3-5-3-5/12------|
E|--5-3-5-3-5-3-5-3-5-3-5-3-5-----------------------------------------|

G|-------------------------------------------------------------------|
D|--2-2--------------------------------------------------------------|
A|--------------------------------2-3-4-5-3-5-3-5-3-5-3-5-3-5-3-5-5--|
E|------5-3-5-3-5-3-5-3-5-3-5-3-5------------------------------------|

(4:12)
G|------------------------------------|
D|------------------------------------|
A|-------------2-3-2-0--------5--5—5--|
E|--5--5--5—5----------3-2-0----------|

G|---------------------------------------|
D|-----5H7P5H7P5H7P5---------------------|
A|—-5---------------5-5P3-5P3-5P3--------|
E|--------------------------------3-4-5--|

(4:22)
G|---------------------------------------------------------------|
D|---------------------------------------------------------------|
A|----------------------------2-3-4-5-3-5-3-5-3-5-3-5-3-5-3-5-3--|
E|--5-3-5-3-5-3-5-3-5-3-5-3-5------------------------------------|

G|---------------------------------------------------------|
D|---------------------------------------------------------|
A|--------------------------------2-3-4-5-3-5-3-5-3-5-3-5--|
E|--2-3-5-3-5-3-5-3-5-3-5-3-5-3-5--------------------------|

G|----------------------------------------------------------------------|
D|----------------0H2---------------------------------------------------|
A|----------0-2-3------------------------------2-3-4-5-3-5-3-5-3-5-3-5--|
E|--2-3-3H4----------5-3-5-3-5-3-5-3-5-3-5-3-5--------------------------|

G|---------------------------------|
D|--7-7-5-4-5-4-5-4----------------|
A|------------------5-3-5-3--------|
E|--------------------------3-4-5--|

(4:50)
G|--------------------------------------------------------------------|
D|---------------------------------------------------------------12\--|
A|----------------------------2-3-4-5-3-5-3-5-3-5-3-5-3-5-3-5/12------|
E|--5-3-5-3-5-3-5-3-5-3-5-3-5-----------------------------------------|

G|-------------------------------------------------------------------|
D|--2-2--------------------------------------------------------------|
A|--------------------------------2-3-4-5-3-5-3-5-3-5-3-5-3-5-3-5-5--|
E|------5-3-5-3-5-3-5-3-5-3-5-3-5------------------------------------|

G|---------------------------------|
D|--7-7-5-4-5-4-5-4----------------|
A|------------------5-3-5-3--------|
E|--------------------------3-4-5--|

(5:09)
G|--------------------------------------------------------------------|
D|---------------------------------------------------------------12\--|
A|----------------------------2-3-4-5-3-5-3-5-3-5-3-5-3-5-3-5/12------|
E|--5-3-5-3-5-3-5-3-5-3-5-3-5-----------------------------------------|

G|-------------------------------------------------------------------|
D|--2-2--------------------------------------------------------------|
A|--------------------------------2-3-4-5-3-5-3-5-3-5-3-5-3-5-3-5-5--|
E|------5-3-5-3-5-3-5-3-5-3-5-3-5------------------------------------|

G|---------------------------------|
D|--7-7-5-4-5-4-5-4----------------|
A|------------------5-3-5-3--------|
E|--------------------------3-4-5--|






************************************

\ Slide down
/  Slide up
H  Hammer
P  Pull off

************************************

            
            
Suggest correction
Creating personal tab
Creating personal tab
You can edit any tab online and save it as your Personal.

You can edit, replace or remove any tab part or add personal notes – all changes will be seen only by you.

Personal tabs can be accessed anytime from any device, even offline.
Learn more »
Give kudos to tab author, rate the tab!
1 2 3 4 5
comments
print report bad tab
guest
You may want to rate the tab now too:
select rating
Wanna post a correction for this tab? Suggest correction