Oops, an error
Loading. Please wait.

Ladies And Gentlemen I Give You Hell Tab

version 1
version 1

Whole song

Interactive

7,492 views 3 this week
1 commentread comment
1 2 3 4 5
accurate
x 11
add to favorites
launch autoscroll
font size
0
reset
how to read this tab
guitar tuner
Autoscroll
slow
fast
+/-
esc
set tempo
stop
Help us to improve Ultimate-Guitar.com Take our survey!
×
Author
Difficulty
Tuning
intermediate
D A D G B E
CAPTURE THE CROWN – LADIES AND GENTLEMEN... I GIVE YOU HELL – DROP D

If you have any corrections feel free to email me
at tanner.drage@yahoo.com and hit me up on Xbox Live,
my gamertag is CoRE Affliction. This is my first tab ever
so dont be too hard on me if I massively screw up lol. Enjoy!


Guitar 1: Lead

"THE WORLD ENDS HERE!!" – play this four times but third time let open chords ring
E|--------------------------------------------------------------|
B|--------------------------------------------------------------|
G|--------------------------------------------------------------|
D|-00000000--0000~00~0--000-00000000000--0000~00~0--------------|
A|-00000000--0000~00~0--000-00000000000--0000~00~0-----13----10-|
D|-00000000--0000~00~0--000-00000000000--0000~00~0--00----00----|
   ........  .... .. .  ... ...........  .... .. .  ..    ..

Verse: The rhythm here isn’t perfect but you get the idea :)
|-----------------------------|---------------------- 4X!!! -------------------------|
|-----------------------------|------------------------------------------------------|
|-----------------------------|------------------------------------------------------|
|-----------------------------|------------------------------------------------------|
|-----------------------------|------------------------------------------------------|
|-0-0-0-0-0-0-0-0-0-0-0-0-0-0-|-0-0-0-0-0-0-000-0-000-0--0-0-0-0-0-0-0-0-0-0-0-0-0-0-|
  . . .       . .     . .       . . .       ... . ... .  . . .       . .     . .

Pre-Chorus:
|------------|
|------13----|
|-9h10----10-|
|------------| 4x
|------------|
|------------|

Chorus:
|------------|
|------13----|
|-9h10----10-|
|------------| 16x
|------------|
|------------|

|-----------------------------------------|
|-----------------------------------------|
|-----------------------------------------|
|--0---------10---------8--------3--------|
|--0--(16x)--10--(16x)--8—(16x)--3--(16x)-|
|--0---------10---------8--------3--------|

Breakdown:
|-------------------------------------------------------|
|-------------------------------------------------------|
|-------------------------------------------------------|
|--0~~~~~~~~~~~~~~~--------0~~~~~~~~~~~~-0--------------|
|--0~~~~~~~~~~~~~~~--------0~~~~~~~~~~~~-0--------------|
|--0~~~~~~~~~~~~~~~--18\\1-0~~~~~~~~~~~~-0--------------|

"Rage"

|--------------------------------------------------------|
|--------------------------------------------------------|
|--------------------------------------------------------|
|-0000-0-0000-00-0-00000000-0000-0-0000-00-0-000---------|
|-0000-0-0000-00-0-00000000-0000-0-0000-00-0-000-5p0h5p0-|
|-0000-0-0000-00-0-00000000-0000-0-0000-00-0-000---------|
  .... . .... .. . ........ .... . .... .. . ...

|--------------------------------------------------------11h13-11h13-|
|--------------------------------------------------11h13-------------|
|--------------------------------------------10h12-------------------|
|-0000-0-0000-00-0-00000000-0000-0-0000-00-0-------------------------|
|-0000-0-0000-00-0-00000000-0000-0-0000-00-0-------------------------|
|-0000-0-0000-00-0-00000000-0000-0-0000-00-0-------------------------|
  .... . .... .. . ........ .... . .... .. .

Let notes ring on this measure \/ only
|--------------------------------------------------------|
|--------------------------------------------------------|
|--------------------------------------------------------|
|-0000-0-0000-00-0-00000000-0000-0-0000-00-0-000---------|
|-0000-0-0000-00-0-00000000-0000-0-0000-00-0-000-5p0h5p0-|
|-0000-0-0000-00-0-00000000-0000-0-0000-00-0-000---------|
  .... . .... .. . ........ .... . .... .. . ...

|--------------------------------------------------------11h13-11h13-|
|--------------------------------------------------11h13-------------|
|--------------------------------------------10h12-------------------|
|-0000-0-0000-00-0-00000000-0000-0-0000-00-0-------------------------|
|-0000-0-0000-00-0-00000000-0000-0-0000-00-0-------------------------|
|-0000-0-0000-00-0-00000000-0000-0-0000-00-0-------------------------|
  .... . .... .. . ........ .... . .... .. .

|--------------------------------------------------------|
|--------------------------------------------------------|
|--------------------------------------------------------|
|-0000-0-0000-00-0-00000000-0000-0-0000-00-0-000---------|
|-0000-0-0000-00-0-00000000-0000-0-0000-00-0-000---------|
|-0000-0-0000-00-0-00000000-0000-0-0000-00-0-000---------|
  .... . .... .. . ........ .... . .... .. . ...

Repeat Pre-Chorus
Repeat Chorus

Solo:                  |   sweep  |
|-------------------------------12-13\--15^17-13--1212-13-12-------|
|-10----10----10-------------13------------------------------13-15-|
|-12^14-12^14-12^14-------14---------------------------------------|
|----------------------15------------------------------------------|
|------------------------------------------------------------------|
|------------------------------------------------------------------|

I'm not sure about this measure but it's the closest I could get
|--------------------------------------------------------|
|---------------------------------------8-10-11-8-10-11--|
|-------------------------7-9-10-7-9-10------------------|
|-------------5-7-8-5-7-8--------------------------------|
|-5-7-8-5-7-8--------------------------------------------|
|--------------------------------------------------------|
  . . . . . . . . . . . . . . . . . . .

|-------------15^17r15-13-12h13p12\10-10h12p10----10---~~~-|
|----------13----------------------------------13-13^15~~~-|
|-------14-------------------------------------------------|
|-12h15----------------------------------------------------|
|----------------------------------------------------------|
|----------------------------------------------------------|

Breakdown: I'm sick of figuring out every rhythm (can you blame me? lol) so you can 
figure this out, just listen to the song.
|------------------------------------------|
|------------------------------------------|
|------------------------------------------|
|-000-000---0000-00------------------------|
|-000-000---0000-00--etc., etc., etc.------|
|-000-000---0000-00--------------------3b4-|
  ... ...   .... ..

|----------------------------------------------------------------|
|----------------------------------------------------------------|
|----------------------------------------------------------------|
|-000-000---0000-00----------------------------------------------|
|-000-000---0000-00--etc., etc., etc.---5h8p5h8p5h8--4h7p4h7p4h7-|
|-000-000---0000-00----------------------------------------------|
  ... ...   .... ..

|------------------------------------------|
|------------------------------------------|
|------------------------------------------|
|-000-000---0000-00------------------------|
|-000-000---0000-00--etc., etc., etc.------|
|-000-000---0000-00------------------------|
  ... ...   .... ..

|------------------------------------------|
|------------------------------------------|
|------------------------------------------|
|-000-000---0000-00------------------------|
|-000-000---0000-00--etc., etc., etc.------|
|-000-000---0000-00--------------------3b4-|
  ... ...   .... ..

"Oi! We done?! Nope"

"RRRAAAGGGEEE!!!" Breakdown
|------------------------------5*----|
|-------------------------------5*---|
|--------------------------------5*--|
|-0--0-0-0-0~~~~-0--0-0-0-0~~~-------| 2x
|-0--0-0-0-0~~~~-0--0-0-0-0~~~-------|
|-1--1-1-1-1~~~~-1--1-1-1-1~~~-------|
  .  . . . .     .  . . . .

|---|
|---|
|---|
|-0-|
|-0-|
|-0-|
  .

=============================================================================

Guitar 2: Rhythm

"THE WORLD ENDS HERE!!" – play this four times but third time let open chords ring
E|------------------------------------------------------------|
B|------------------------------------------------------------|
G|------------------------------------------------------------|
D|-00000000--0000~00~0--000-00000000000--0000~00~0------------|
A|-00000000--0000~00~0--000-00000000000--0000~00~0-----8----7-|
D|-00000000--0000~00~0--000-00000000000--0000~00~0--00---00---|
   ........  .... .. .  ... ...........  .... .. .  ..   ..

Verse:
Verse: The rhythm here isn’t perfect but you get the idea :)
|-----------------|---------------------- 4X!!! -------------------------|
|-----------------|------------------------------------------------------|
|-----------------|------------------------------------------------------|
|-0~~~~~~~~~~~~~~-|------------------------------------------------------|
|-0~~~~~~~~~~~~~~-|------------------------------------------------------|
|-0~~~~~~~~~~~~~~-|-0-0-0-0-0-0-000-0-000-0--0-0-0-0-0-0-0-0-0-0-0-0-0-0-|
                    . . .       ... . ... .  . . .       . .     . .

Pre-Chorus: Guitar 2 plays nothing

Chorus:
|-----------------------------------------------------------------|
|-----------------------------------------------------------------|
|-----------------------------------------------------------------|
|-0-0-0-0--0-0-0-0--0-0-0-0-10-10-10-10--10-10-10-10--10-10-10-10-|
|-0-0-0-0--0-0-0-0--0-0-0-0-10-10-10-10--10-10-10-10--10-10-10-10-|
|-0-0-0-0--0-0-0-0--0-0-0-0-10-10-10-10--10-10-10-10--10-10-10-10-|

--------------------------------------------------------|
--------------------------------------------------------|
--------------------------------------------------------|
-8-8-8-8--8-8-8-8--8-8-8-8-3-3-3-3--3-3-5-5-5-5-5-5-5-5-|
-8-8-8-8--8-8-8-8--8-8-8-8-3-3-3-3--3-3-5-5-5-5-5-5-5-5-|
-8-8-8-8--8-8-8-8--8-8-8-8-3-3-3-3--3-3-5-5-5-5-5-5-5-5-|

|-------------------------------------------------|
|-------------------------------------------------|
|-------------------------------------------------|
|--0---------10---------8--------3--------5-------|
|--0--(16x)--10--(16x)--8—(16x)--3--(8x)--5--(8x)-|
|--0---------10---------8--------3--------5-------|

Breakdown:
|-------------------------------------------------------|
|-------------------------------------------------------|
|-------------------------------------------------------|
|--0~~~~~~~~~~~~~~~--------0~~~~~~~~~~~~-0--------------|
|--0~~~~~~~~~~~~~~~--------0~~~~~~~~~~~~-0--------------|
|--0~~~~~~~~~~~~~~~--18\\1-0~~~~~~~~~~~~-0--------------|

"Rage"

|--------------------------------------------------------|
|--------------------------------------------------------|
|--------------------------------------------------------|
|-0000-0-0000-00-0-00000000-0000-0-0000-00-0-000-3p0h3p0-|
|-0000-0-0000-00-0-00000000-0000-0-0000-00-0-000---------|
|-0000-0-0000-00-0-00000000-0000-0-0000-00-0-000---------|
  .... . .... .. . ........ .... . .... .. . ...

|--------------------------------------------------------------------|
|--------------------------------------------------------11h13-11h13-|
|--------------------------------------------------10h12-------------|
|-0000-0-0000-00-0-00000000-0000-0-0000-00-0-10h12-------------------|
|-0000-0-0000-00-0-00000000-0000-0-0000-00-0-------------------------|
|-0000-0-0000-00-0-00000000-0000-0-0000-00-0-------------------------|
  .... . .... .. . ........ .... . .... .. .

Let notes ring on this measure \/ only
|--------------------------------------------------------|
|--------------------------------------------------------|
|--------------------------------------------------------|
|-0000-0-0000-00-0-00000000-0000-0-0000-00-0-000-3p0h3p0-|
|-0000-0-0000-00-0-00000000-0000-0-0000-00-0-000---------|
|-0000-0-0000-00-0-00000000-0000-0-0000-00-0-000---------|
  .... . .... .. . ........ .... . .... .. . ...

|--------------------------------------------------------------------|
|--------------------------------------------------------11h13-11h13-|
|--------------------------------------------------10h12-------------|
|-0000-0-0000-00-0-00000000-0000-0-0000-00-0-10h12-------------------|
|-0000-0-0000-00-0-00000000-0000-0-0000-00-0-------------------------|
|-0000-0-0000-00-0-00000000-0000-0-0000-00-0-------------------------|
  .... . .... .. . ........ .... . .... .. .

|--------------------------------------------------------|
|--------------------------------------------------------|
|--------------------------------------------------------|
|-0000-0-0000-00-0-00000000-0000-0-0000-00-0-----000-----|
|-0000-0-0000-00-0-00000000-0000-0-0000-00-0-----000-----|
|-0000-0-0000-00-0-00000000-0000-0-0000-00-0-----000-----|
  .... . .... .. . ........ .... . .... .. .     ...

Repeat Pre-Chorus
Repeat Chorus

Solo Backing:
|--------------------------------------------------------------------|
|--------------------------------------------------------------------|
|--------------------------------------------------------------------|
|-0-0-0-0--0-000-0--0-000-0--10-10-10-10--10-101010-10--10-101010-10-|
|-0-0-0-0--0-000-0--0-000-0--10-10-10-10--10-101010-10--10-101010-10-|
|-0-0-0-0--0-000-0--0-000-0--10-10-10-10--10-101010-10--10-101010-10-|
  . . . .  . ... .  . ... .  .  .  .  .   .  . . .  .   .  . . .  .

---------------------------------------------------------------|
---------------------------------------------------------------|
---------------------------------------------------------------|
-8-8-8-8--8-888-8--8-888-8--3-333--3-3--3-3-3-3-3-3-3-3-0~~~~~-|
-8-8-8-8--8-888-8--8-888-8--3-333--3-3--3-3-3-3-3-3-3-3-0~~~~~-|
-8-8-8-8--8-888-8--8-888-8--3-333--3-3--3-3-3-3-3-3-3-3-0~~~~~-|
 . . . .  . ... .  . ... .  . ...  . .    . .   . .   .

Breakdown: I'm sick of figuring out every rhythm (can you blame me? lol) so you can 
figure this out, just listen to the song.
|------------------------------------------|
|------------------------------------------|
|------------------------------------------|
|-000-000---0000-00------------------------|
|-000-000---0000-00--etc., etc., etc.------|
|-000-000---0000-00--------------------3b4-|
  ... ...   .... ..

|---------------------------------------------------------------------|
|---------------------------------------------------------------------|
|---------------------------------------------------------------------|
|-000-000---0000-00---------------------------------------------------|
|-000-000---0000-00--etc., etc., etc.---9h12p9h12p9h12-8h11p8h11p8h11-|
|-000-000---0000-00---------------------------------------------------|
  ... ...   .... ..

|------------------------------------------|
|------------------------------------------|
|------------------------------------------|
|-000-000---0000-00------------------------|
|-000-000---0000-00--etc., etc., etc.------|
|-000-000---0000-00------------------------|
  ... ...   .... ..

|------------------------------------------|
|------------------------------------------|
|------------------------------------------|
|-000-000---0000-00------------------------|
|-000-000---0000-00--etc., etc., etc.------|
|-000-000---0000-00--------------------3b4-|
  ... ...   .... ..

"Oi! We done?! Nope"

"RRRAAAGGGEEE!!!" Breakdown
|------------------------------5*----|
|-------------------------------5*---|
|--------------------------------5*--|
|-0--0-0-0-0~~~~-0--0-0-0-0~~~-------| 2x
|-0--0-0-0-0~~~~-0--0-0-0-0~~~-------|
|-1--1-1-1-1~~~~-1--1-1-1-1~~~-------|
  .  . . . .     .  . . . .

|---|
|---|
|---|
|-0-|
|-0-|
|-0-|
  .

Thats it! Email me with corrections or for help with figuring something out! Have fun 
playing and be sure to rate this tab! More tabs coming soon! Peace!

-Tanner
Suggest correction
comments
print report bad tab
1 comment total.
0 reply
Audible Warfare 805 wrote on March 5 2014, 08:47 pm

Thanks to the ******* who rated this with 1 star!

guest
You may want to rate the tab now too:
select rating
Please do not post tabs as comments. Select "correction" instead!