Oops, an error
Loading. Please wait.

Beast Monster Thing Love Isnt Love Enough chords

67 views 24 this week
1 commentread comment
1 2 3 4 5
x 3
add to favorites
×
Save as Personal and add changes to this tab that will be seen only by you. Learn more ›
×
You can save this tab as Personal to edit and correct it or add notes. All changes will be seen only by you. Learn more »
launch autoscroll
font size
0
reset
transpose
0
reset
simplify chords
display chords
guitar tuner
edit
Autoscroll
slow
fast
+/-
esc
set tempo
stop
Strumming
There is no strumming pattern for this song yet. and get +5 IQ
Bm/A  Bm/F#  D/A#
e|-2-----2------2-----------------------------------------------------------------|
B|-3-----3------3-----------------------------------------------------------------|
G|-4-----4------3-----------------------------------------------------------------|
D|-4-----4-----(0)----------------------------------------------------------------|
A|-0-----2------------------------------------------------------------------------|
E|-------2------------------------------------------------------------------------|


[Intro]

Bm Bm/A Bm/F# A D D/A# D E

Bm         Bm/A                  Bm/F#           A
...And any remaining interest my friends have in me
         D              D/A#       D      E
Is just "hey, hey, this animal can talk!"


Riff 1
e|---------------------------------------------------------------------------|
B|---------15--17----15------------------15--17----15------------------------|
G|-----16----------------16----------16----------------16--------------------|
D|-17------------------------17--17------------------------------------------|  (x2)
A|---------------------------------------------------------------------------|
E|---------------------------------------------------------------------------|


[Verse 1]
G
  So all your friends are leaving town
A
  You're hiding out in your parents' house
G
  They wonder why you never go to church
A
  Hard to explain why it doesn't work
G
  Cause you're not living in sin well
A
  But you're not living in health well
G
  And you're a danger to yourself well
A
  And to pedestrians
G
  I co-write my songs with myself
A                                     G
  He feels the feelings I write the words
G
I co-write my songs with myself
A                                     G
  He feels the feelings I write the words
G
  He writes down his feelings
A
  I say "what are you doing?"


[Post-Verse]
       G                    F#m
And he never saw the bright lights
       G                F#m
And he never had a good time
       G                    F#m
And he never saw the bright lights
       A
And he never saw the good times

[Verse 2]
G
  So I sleep in my old loft bed
A
  And search for hope inside my head
G
  But even in my dreams
A
  I know the difference between what I want
G
  and what I got
A                     G                                                A
  Cause what I got is mumble mumble (how are you doing? Why's the door locked?)
                  G                                        A 
(I'll be out in a minute second,ooh these are good lyrics, I should charge a dollar per thought)
    G      
And what I want what I want what I want what I want
A
What I want what I want what I want what I want
G
What I want what I want what I want what I want
A

[Chorus]
G               D
Love isn't love enough
N.C.
At least not how I'm making it
G               D
Love isn't love enough
N.C.
I think this is the other thing

Riff 2
e|-3--2--0------------|
B|----------3--2h3-0--|
G|--------------------|
D|--------------------|
A|--------------------|
E|--------------------|


[Bridge]
Bm Bm/A Bm/F# A D D/A# D E

Bm           Bm/A
   Don't get mad at the system
Bm/F#     A
      You can't change the system
D     D/A#
  Get mad at your lover
D     E            
  You can affect your lover
N.C.
Like pulling out nails with the back of the hammer


[Verse 3]
G
  Spending my money in 12 dollar increments
A
  Milkshake plus tip adds up to more than I think
G
  And I admit my heart is a laughingstock
A
  But that's why that's why that's why that's why
G
  Cause I donât want to be perceived yeah
A
  As a thing you can believe in
G
  I'm an optical illusion
A
  And pretty soon I think I"m leaving
G
  When I stopped laughing and got to thinking
A
  When I stopped laughing at how much we were drinking
G
  When you never called me back
A
  While I was staring at the paint crack
G
Fun while it lasted but it didnât last
       A
It was fun while it lasted but it didnât
       G
It was fun while it lasted but it didnât last
       A
It was fun while it lasted but it didnât


[Chorus]
G               D
Love isn't love enough
N.C.
At least not how I'm making it
G               D
Love isn't love enough
N.C.
I think this is the other thing

Riff 2
e|-3--2--0------------|
B|----------3--2h3-0--|
G|--------------------|
D|--------------------|
A|--------------------|
E|--------------------|


[Verse 5]
G
"Only her voice and bones are left; at last
A
Only her voice, her bones are turned to stone"
 

************************************

| (n)  Ghost note
| h    Hammer-on
 

************************************
Suggest correction
Creating personal tab
Creating personal tab
You can edit any tab online and save it as your Personal.

You can edit, replace or remove any tab part or add personal notes – all changes will be seen only by you.

Personal tabs can be accessed anytime from any device, even offline.
Learn more »
Give kudos to tab author, rate the tab!
1 2 3 4 5
comments
print report bad tab
1 comment total.
+1 reply
hamethanham 20 5 days ago

so happy to see this transcribed. thank you!

guest
You may want to rate the tab now too:
select rating
Wanna post a correction for this tab? Suggest correction