Oops, an error
Loading. Please wait.

Cute Thing Chords

199 views 54 this week
no commentswrite comment
1 2 3 4 5
x 5
add to favorites
launch autoscroll
font size
0
reset
transpose
0
reset
display chords
guitar tuner
Autoscroll
slow
fast
+/-
esc
set tempo
stop
Help us to improve Ultimate-Guitar.com Take our survey!
×
Author
Strumming
Intro 240 bpm
1
&
2
&
3
&
4
&
5
&
6
&
7
&
8
&
9
&
10
&
11
&
12
&
13
&
14
&
15
&
16
&
Play
Is this strumming pattern correct? Yes No
-----------------
Tab by Cowabungus
Car Seat Headrest - Cute Thing

Bb - 1-1-3-3-3-1
C  - 3-3-5-5-5-3
Cm - 3-3-5-5-4-3
Eb - 6-6-8-8-8-6
Db - 4-4-6-6-6-4
Ebm- 6-6-8-8-7-6

[Verse]
e|---10---10---10---10-10-10-10-10---10---10-10-10---10---10---11------11---11---11-|
B|---11---11---11---11-11-11-11-11---11---11-11-11---11---11---11------11---11---11-|
G|---10---10---10---10-10-10-10-10---10---10-10-10---10---10---10------10---10---10-|
Bb
I got so fucking romantic I apologize, let me light your cigarette

come visit Kansas for a week of debauchery, songs and high fives and weird sex

[Chorus]
Bb   C Cm
Cute Thing
         Bb    C Cm
Don't be rude, thing
Bb  C Cm
Hot thing
       Bb C Cm
It was nothing

[Post-Chorus]
Bb 
God
Eb      C           Bb
Give me Dan Bejar's voice
Eb       C           Bb
And John Entwistle's stage presence
Eb     C       Bb                     Eb          C
I will be your rock, God, when you're rolling the dice

e|---------------------------------------------8-----8--10-10-10-10-10-10-10-8---|
B|---------8---------8-11-8--10--11----8-10-11---11------------------------------|
G|--8--10-------8-10-------------------------------------------------------------|
    Eb Dm Cm              Eb Dm Cm               Eb  Dm Cm

[Verse]
e|---10---10---10---10-10-10-10-10---10---10-10-10---10---10---11------11---11---11-|
B|---11---11---11---11-11-11-11-11---11---11-11-11---11---11---11------11---11---11-|
G|---10---10---10---10-10-10-10-10---10---10-10-10---10---10---10------10---10---10-|
Bb
I got so fucking romantic I apologize, Lemme smoke your weed, no wait

Healthy minds make sexy bodies let us touch so much of ourselves together

[Chorus]
Bb   C Cm
Cute Thing
         Bb    C Cm
Don't be rude, thing
Bb  C Cm
Hot thing
       Bb C Cm
It was nothing

[Post-Chorus]
Bb
Dog
Eb      C          Bb
Give me one little chance
Eb    C          Bb
I can make you a man
Eb     C       Bb                    Eb           C
I will be your rock dog, when you're rolling your eyes

e|---------------------------------------------8-----8--10-10-10-10-10-10-10-8---|
B|---------8---------8-11-8--10--11----8-10-11---11------------------------------|
G|--8--10-------8-10-------------------------------------------------------------|
    Eb Dm Cm              Eb Dm Cm               Eb  Dm Cm

[Instrumental]
e|---10---10-10-10---10-10-11-11-11---11---11-11-10---10-10-10---11---11-11-11---11---11-11-|
B|---11---11-11-11---11-11-11-11-11---11---11-11-11---11-11-11---11---11-11-11---11---11-11-|
G|---10---10-10-10---10-10-10-10-10---10---10-10-10---10-10-10---10---10-10-10---10---10-10-| (x6)

(after 2nd time)
Bb Db Eb (x4)

Bb C Cm
     Doo doo doo doo doo doo doo doo (x4)

[Bridge]
Bb            Dm
He died in an explosion
         Cm               F
Of mixed media and poorly written reviews
         Bb                            Dm                    Cm
And some stammering drunk who tried to tell him how good his shit was
             F
That is some good shit, man
Bb                        Dm
I accidentally spoke your first name aloud
Eb                           Ebm            Bb          C    F Bb
Trying to make it fit in the lyrics of "Ana Ng," worked like a charm

e|---------------------------------------------8-----8--10-10-10-10-10-10-10-8---|
B|---------8---------8-11-8--10--11----8-10-11---11------------------------------|
G|--8--10-------8-10-------------------------------------------------------------|
              Eb  Dm Cm                                                     Eb           Dm
We're getting old.     When will we walk in each other's majestic presence? Listen, hear my words
            Cm                                                Eb    Dm           Cm
They're the ones you would think I would say if I was John Linnell, or trying to be John Linnell

[Outro]
Bb Dm Cm F

Bb     Dm    Cm F
I have loved
Bb           Dm     Cm          F 
I will sleep naked, next to you naked
Bb     Dm    Cm F
I have loved, 
Bb     Dm    Cm F
I have loved
Bb           Dm     Cm          F
I will sleep naked, next to you naked
Bb     Dm    Cm F
I have loved
Bb     Dm    Cm F
I have loved
          Bb              Dm
Like some Stanley Kubrick porn director
Cm              F                   Bb
Casting couples eyes wide shut for a reason
Suggest correction
comments
print report bad tab
guest
You may want to rate the tab now too:
select rating
Wanna post a correction for this tab? Suggest correction