Oops, an error
Loading. Please wait.

Destroyed By Hippie Powers tab

version 1
version 1

Whole song

  • Destroyed By Hippie Powers from Teens of Denial.
1,729 views 60 this week
no commentswrite comment
1 2 3 4 5
x 4
add to favorites
×
Save as Personal and add changes to this tab that will be seen only by you. Learn more ›
×
You can save this tab as Personal to edit and correct it or add notes. All changes will be seen only by you. Learn more »
launch autoscroll
font size
0
reset
how to read this tab
guitar tuner
edit
Autoscroll
slow
fast
+/-
esc
set tempo
stop
Author
[Intro]
e|---------------------------------------------------------------------------|(x2)
B|---------------------------------------------------------------------------|
G|-----------------------6-6-6-6-6-6-6-6-2--2-2-2-2-2-2-2-2------------------|
D|-2-2-2-2-2-2-2-2-2-2-2-6-6-6-6-6-6-6-6-2--2-2-2-2-2-2-2-2------------------|
A|-2-2-2-2-2-2-2-2-2-2-2-4-4-4-4-4-4-4-4-0--0-0-0-0-0-0-0-0------------------|
E|-0-0-0-0-0-0-0-0-0-0-0-----------------------------------------------------|

e|---------------------------------------------------------------------------|
B|---------------------------------------------------------------------------|
G|---------------------------------------------------------------------------|
D|--2------------------------------------------------------------------------|
A|--2------------------------------------------------------------------------|
E|--0------------------------------------------------------------------------|

[Verse]
e|---------------------------------------------------------------------------|
B|---------------------------------------------------------------------------|
G|-x-x-11-11-x-x-11-11-x-x-11-11-x-x-11-11-x-x-11-11-x-x-11-11-x-x-11-11-x-x-|
D|-x-x-11-11-x-x-11-11-x-x-11-11-x-x-11-11-x-x-11-11-x-x-11-11-x-x-11-11-x-x-|
A|-x-x-9--9--x-x-9--9--x-x-9--9--x-x-9--9--x-x-9--9--x-x-9--9--x-x-9--9--x-x-|
E|---------------------------------------------------------------------------|

e|----------------------|(x5)
B|----------------------|
G|-11-11---9-11-9-9-----|
D|-11-11---9-11-9-9-----|
A|-9--9----7-9--7-7-----|
E|----------------------|

[Pre-Chorus]
e|---------------------------------------------------------------------------|
B|-------------------------------------1-1-1-1-1-1-1-------------------------|
G|-6-6-6-6-6-6-6-6--4-4-4-4-4-4-4-4-4--2-2-2-2-2-2-2-------------------------|
D|-6-6-6-6-6-6-6-6--4-4-4-4-4-4-4-4-4--2-2-2-2-2-2-2--2-2-2-2-2-2-2----------|
A|-4-4-4-4-4-4-4-4--2-2-2-2-2-2-2-2-2--0-0-0-0-0-0-0--2-2-2-2-2-2-2----------|
E|----------------------------------------------------0-0-0-0-0-0-0----------|

e|---------------------------------------------------------------------------|
B|----------------------------------------------------1-1-1-1-1-1-1----------|
G|-6-6-6-6-6-6-6-6--4-4-4-4-4-4-4-4-4--7-7-7-7-7-7-7--2-2-2-2-2-2-2----------|
D|-6-6-6-6-6-6-6-6--4-4-4-4-4-4-4-4-4--7-7-7-7-7-7-7--2-2-2-2-2-2-2----------|
A|-4-4-4-4-4-4-4-4--2-2-2-2-2-2-2-2-2--5-5-5-5-5-5-5--0-0-0-0-0-0-0----------|
E|---------------------------------------------------------------------------|

[Chorus]
e|---------------------------------------------------------------------------|(x5)
B|---------------------------------------------------------------------------|
G|-2-2-11-11-2-2-11-11-2-2-11-11-2-2-11-11-6-6-6-6-6-6-6-2-2-2-2-2-2-2-2-----|
D|-2-2-11-11-2-2-11-11-2-2-11-11-2-2-11-11-6-6-6-6-6-6-6-2-2-2-2-2-2-2-2-----|
A|-0-0-9--9--0-0-9--9--0-0-9--9--0-0-9--9--4-4-4-4-4-4-4-0-0-0-0-0-0-0-0-----|
E|---------------------------------------------------------------------------|

e|---------------------------------------------------------------------------|
B|---------------------------------------------------------------------------|
G|-6-6-6-9-9-9-8-8-8---------------------------------------------------------|
D|-6-6-6-9-9-9-8-8-8---------------------------------------------------------|
A|-4-4-4-7-7-7-6-6-6---------------------------------------------------------|
E|---------------------------------------------------------------------------|

[Bridge]
e|---------------------------------------------------------------------------|
B|----------------------------------5-4-----4-5------------------------------|
G|---------------------------------------2-----------------------------------|
D|-2-------------------------------------2-----------------------------------|
A|-2-------------------------------------0-----------------------------------|
E|-0----------------------/12------------------------------------------------|

e|---------------------------------------------------------------------------|
B|------------------------------------------------------5-4-----4-5----------|
G|-----------------------------------------------------------2---------------|
D|-2---------------------------------------------------------2---------------|
A|-2---------------------------16-16-16-16-18-16-18----------0---------------|
E|-0----------------------/12------------------------------------------------|

e|------------------------------------------------------------------|
B|------------------------------------------------------------------|
G|-x-x-11-11-x-x-11-11-x-x-11-11-x-x-11-x-x-11-x-x-11-11--9-9-11-9-9|
D|-x-x-11-11-x-x-11-11-x-x-11-11-x-x-11-x-x-11-x-x-11-11--9-9-11-9-9|
A|-x-x-9--9--x-x-9--9--x-x-9--9--x-x-9--x-x-9--x-x-9--9---7-7-9--7-7|
E|------------------------------------------------------------------|

[Pre-Chorus]
e|---------------------------------------------------------------------------|
B|-------------------------------------1-1-1-1-1-1-1-------------------------|
G|-6-6-6-6-6-6-6-6--4-4-4-4-4-4-4-4-4--2-2-2-2-2-2-2-------------------------|
D|-6-6-6-6-6-6-6-6--4-4-4-4-4-4-4-4-4--2-2-2-2-2-2-2--2-2-2-2-2-2-2----------|
A|-4-4-4-4-4-4-4-4--2-2-2-2-2-2-2-2-2--0-0-0-0-0-0-0--2-2-2-2-2-2-2----------|
E|----------------------------------------------------0-0-0-0-0-0-0----------|

e|---------------------------------------------------------------------------|
B|----------------------------------------------------1-1-1-1-1-1-1----------|
G|-6-6-6-6-6-6-6-6--4-4-4-4-4-4-4-4-4--7-7-7-7-7-7-7--2-2-2-2-2-2-2----------|
D|-6-6-6-6-6-6-6-6--4-4-4-4-4-4-4-4-4--7-7-7-7-7-7-7--2-2-2-2-2-2-2----------|
A|-4-4-4-4-4-4-4-4--2-2-2-2-2-2-2-2-2--5-5-5-5-5-5-5--0-0-0-0-0-0-0----------|
E|---------------------------------------------------------------------------|

[Chorus]
e|---------------------------------------------------------------------------|(x5)
B|---------------------------------------------------------------------------|
G|-2-2-11-11-2-2-11-11-2-2-11-11-2-2-11-11-6-6-6-6-6-6-6-2-2-2-2-2-2-2-2-----|
D|-2-2-11-11-2-2-11-11-2-2-11-11-2-2-11-11-6-6-6-6-6-6-6-2-2-2-2-2-2-2-2-----|
A|-0-0-9--9--0-0-9--9--0-0-9--9--0-0-9--9--4-4-4-4-4-4-4-0-0-0-0-0-0-0-0-----|
E|---------------------------------------------------------------------------|

e|---------------------------------------------------------------------------|
B|---------------------------------------------------------------------------|
G|-6-6-6-9-9-9-8-8-8---------------------------------------------------------|
D|-6-6-6-9-9-9-8-8-8---------------------------------------------------------|
A|-4-4-4-7-7-7-6-6-6---------------------------------------------------------|
E|---------------------------------------------------------------------------|

[Bridge 2]
e|---------------------------------------------------------------------------|(x2)
B|--9-9-9-9-9-9-9-9-9-9-9-9-4-5-5-5-5-5-5-5-5-5-2-2-2-2-2-2-5-5-4-4-4--------|
G|---------------------------------------------------------------------------|
D|---------------------------------------------------------------------------|
A|---------------------------------------------------------------------------|
E|---------------------------------------------------------------------------|

e|---------------------------------------------------------------------------|
B|--9-9-9-9-9-9-9-9-9-9-9-9-4-5-5-5-5-5-5-5-5-5-2-2-2-2-2-2-5-5-4-4-4--------|
G|---------------------------------------------------------------------------|
D|---------------------------------------------------------------------------|
A|---------------------------------------------------------------------------|
E|---------------------------------------------------------------------------|
Pm  * * * * * * * * * * * * * * * * * * * * * * * * * * * * * * * * * 

e|---------------------------------------------------------------------------|(x2)
B|--9-9-9-9-9-9-9-9-9-9-9-9-4-5-5-5-5-5-5-5-5-5-2-2-2-2-2-2-5-5-4-4-4--------|
G|---------------------------------------------------------------------------|
D|---------------------------------------------------------------------------|
A|---------------------------------------------------------------------------|
E|---------------------------------------------------------------------------|

[Outro]
e|---------------------------------------------------------------------------|(x4)
B|---------------------------------------------------------------------------|
G|---------------------------6-6-6-6-6-6-6-6-6---2-2-2-2--9-9-8-8------------|
D|-2-2-2-2-2-2-2-2-2-2-2-2---6-6-6-6-6-6-6-6-6---2-2-2-2--9-9-8-8------------|
A|-2-2-2-2-2-2-2-2-2-2-2-2---4-4-4-4-4-4-4-4-4---0-0-0-0--7-7-6-6------------|
E|-0-0-0-0-0-0-0-0-0-0-0-0---------------------------------------------------|

e|---------------------------------------------------------------------------|
B|---------------------------------------------------------------------------|
G|---------------------------------------------------------------------------|
D|-2-2-2-2-2-2-2-2-2-2-2-2-2-2-2-2-2-2-2-2-2-2-------------------------------|
A|-2-2-2-2-2-2-2-2-2-2-2-2-2-2-2-2-2-2-2-2-2-2-------------------------------|
E|-0-0-0-0-0-0-0-0-0-0-0-0-0-0-0-0-0-0-0-0-0-0-------------------------------|


************************************

| x  Dead note
| /  Slide up

************************************

            
            
Suggest correction
Creating personal tab
Creating personal tab
You can edit any tab online and save it as your Personal.

You can edit, replace or remove any tab part or add personal notes – all changes will be seen only by you.

Personal tabs can be accessed anytime from any device, even offline.
Learn more »
comments
print report bad tab
guest
You may want to rate the tab now too:
select rating
Wanna post a correction for this tab? Suggest correction