Oops, an error
Loading. Please wait.

Dont Remind Me chords

97 views 6 this week
no commentswrite comment
1 2 3 4 5
3 more votes to show rating
add to favorites
×
Save as Personal and add changes to this tab that will be seen only by you. Learn more ›
×
You can save this tab as Personal to edit and correct it or add notes. All changes will be seen only by you. Learn more »
launch autoscroll
font size
0
reset
transpose
0
reset
display chords
guitar tuner
edit
Autoscroll
slow
fast
+/-
esc
set tempo
stop
About this tab version
Easy to play once you get the strumming. Very close to the original song. Was this info helpful? Yes No
Strumming
There is no strumming pattern for this song yet. and get +5 IQ
[INTRO]

One, two, three, four,

  C       Am
e|-----0------0----|
B|---1------1------|
G|-0------2--------|
D|-----------------|
A|-----------------|
E|-----------------|

C  C Am  Am  Am G  G  G F  Fm

[VERSE]

      C                        C    Am
I was thinking of ways I could get you
           Am                    Am  G
Now I'm thinking of ways to forget you
      G                     G   F          Fm
I was finished the minute I let you in my bed

     C       C    Am
I stayed up late bitching
   Am         Am
About being awake
  G       G                G
Until you said "for God's sake"
          F        Fm
That's what you said

        C             C    Am
I don't want a merry Christmas
        Am              Am     G
I don't want these naked pictures
          G         G   F            Fm
That you took under some fictional name

        C           C     Am
I don't want to lie awake thinking
      Am               Am   G
"oh, is that what that was about?"
        G                G    F
Because everything falls into place
    Fm
So late so late but I gotta - I wanna figure it out

[BREAK]

  C       Am
e|-----0------0----|
B|---1------1------|
G|-0------2--------|
D|-----------------|
A|-----------------|
E|-----------------|

C  C Am  Am  Am G  G  G F  F  F Fm

ooooh oooh

[VERSE]
          C                C   Am
A couple hours, yeah, it was good
             Am             Am   G
I'd leave by fire escape if I could
           G           G      F          Fm
But you're in my home, I took you here myself

        C            C  Am
And you came on your own
  Am     Am    G
Into my unknown
        G            G    F            Fm
Did you do it for me alone or your own health?

   C         C   Am
I wanted you tonight
       Am               Am  G
Pretty soon it must get light
     G                G    F               Fm
Just when I thought I might sleep some more

  C               C     Am
I listened to you sleep talking closed
   Am               Am   G
my eyes and started nodding
      G              G       F       Fm
When someone started knocking on the door

[BREAK]

Where's the drum?

  C       Am
e|-----0------0----|
B|---1------1------|
G|-0------2--------|
D|-----------------|
A|-----------------|
E|-----------------| 

Where are the drums?

  C       Am
e|-----0------0----|
B|---1------1------|
G|-0------2--------|
D|-----------------|
A|-----------------|
E|-----------------| x1

  C       Am           G                     F                     Fm           N.C.
e|-----0------0-----0--------3-------3----3--------1--------1----1------1----1--0----|
B|---1------1-------------0-------0-------------1--------1------------1--------------|
G|-0------2------2-----0-------0-------0-----2--------2-------2-----1-----1----------|
D|-----------------------------------------------------------------------------------|
A|-----------------------------------------------------------------------------------|
E|-----------------------------------------------------------------------------------| x3

[CHORUS]
C         N.C.          Am  N.C.
It's not going to happen
G         N.C.   
It's not going to
C         N.C.          Am  N.C.
It's not going to work out
G
I know we had plans to
C                 Am
It's not going to happen
Am            G
It's not going to
C                    Am
It's not going to work out
G
Now that I know you
C       Am      G     F
No no no no no no no no

N.C.

[OUTRO]

-play this riff over the outro-

  C       Am           G                     F                     Fm           N.C.
e|-----0------0-----0--------3-------3----3--------1--------1----1------1----1--0----|
B|---1------1-------------0-------0-------------1--------1------------1--------------|
G|-0------2------2-----0-------0-------0-----2--------2-------2-----1-----1----------|
D|-----------------------------------------------------------------------------------|
A|-----------------------------------------------------------------------------------|
E|-----------------------------------------------------------------------------------| x3

C                   Am
Learned to turn the light off
Am        G              F                   Fm
After I jerked off, I opened my eyes and saw nothing
C         Am      G       F                            Fm  C
A line of light underneath the door was all that I needed

            
            
Suggest correction
Creating personal tab
Creating personal tab
You can edit any tab online and save it as your Personal.

You can edit, replace or remove any tab part or add personal notes – all changes will be seen only by you.

Personal tabs can be accessed anytime from any device, even offline.
Learn more »
Give kudos to tab author, rate the tab!
1 2 3 4 5
comments
print report bad tab
guest
You may want to rate the tab now too:
select rating
Wanna post a correction for this tab? Suggest correction