Oops, an error
Loading. Please wait.

Dreams Fall Hard chords

433 views 21 this week
1 commentread comment
1 2 3 4 5
x 3
add to favorites
×
Save as Personal and add changes to this tab that will be seen only by you. Learn more ›
×
You can save this tab as Personal to edit and correct it or add notes. All changes will be seen only by you. Learn more »
launch autoscroll
font size
0
reset
transpose
0
reset
simplify chords
display chords
guitar tuner
edit
Autoscroll
slow
fast
+/-
esc
set tempo
stop
Author
Difficulty
Strumming Is this strumming pattern correct? Yes No
140 bpm
1
&
2
&
3
&
Listen
                                  ~~~~~~~~~~~~~~~~~~~~~~~~~~~~~~~~~~~~~~~~
                                               Dreams Fall Hard         
                                              Car Seat Headrest
                                              Nervous Young Man
                                  ~~~~~~~~~~~~~~~~~~~~~~~~~~~~~~~~~~~~~~~~
Tabbed by: Connor O.
Tuning: Standard


I'm less than 50% confident in the accuracy of the chorus. You can't hear it. You'd 
have to derive it from the vocal melody and the piano harmony.

Chorus evidence points
D - 0:55  
Am7- 1:04 
Bm7- 1:08
Asus4- 1:14




Verse 1:


                                                 
e|-------------------------------------------------|
B|-------------------------------------------------|
G|-------------------------------------------------|
D|-------------------------------------------------|
A|-------------------------------------------------|
E|-------------------------------------------------|
                                           *   *    

   
   A           AMaj7       E/A         D/A
e|-0-----------------------------------------------|
B|-2-----------5-----------9-----------7-----------|
G|-2-----------6-----------9-----------7-----------|
D|-2-----------6-----------9-----------7-----------|
A|-0-----------0-----------0-----------0-----------|
E|-------------------------------------------------|
   *   *   *   *   *   *   *   *   *   *   *   *        


   Bmin7                   A
e|-------------------------0-----------------------|
B|-3-----------------------2-----------------------|
G|-4-----------------------2-----------------------|
D|-4-----------------------2-----------------------|
A|-0-----------------------0-----------------------|
E|-------------------------------------------------|
   *   *   *   *   *   *   *   *   *   *   *   *  



e|-0-----------------------------------------------|
B|-2-----------5-----------9-----------7-----------|
G|-2-----------6-----------9-----------7-----------|
D|-2-----------6-----------9-----------7-----------|
A|-0-----------0-----------0-----------0-----------|
E|-------------------------------------------------|
   *   *   *   *   *   *   *   *   *   *   *   *   


   Bm          F#m         E
e|-------------------------------------------------|
B|-3-----------2-----------0-----------------------|
G|-4-----------2-----------1-----------------------|
D|-4-----------4-----------2-----------------------|
A|-2-----------4-----------2-----------------------|
E|-------------2-----------0-----------------------|
   *   *   *   *   *   *   *   *   *   *   *   *    

Verse 1:

0:00
     A                 AMaj7    
Last night I dreamed I had to tell
   E/A           D/A
My parents about us
Bmin7                A
When I woke up I was crying
       A               AMaj7
Mother shook me by the shoulders
             E/A          D/A
Said “you’re ruining your life!”
    Bm              F#m                 E
I’m sorry that your bright young boy is dying



Verse 2:

0:25 

I know I dishonored
the family name
But all I ever had was my heart

And I wake up a kid
In a bed miles from home
But I’m too old to get a new start   



Pre-Chorus:

0:50
             D
I’ve heard I talk in my sleep
       E            D
But my voice is too weak
   D        E       Bm7
To hear the words I say



Chorus:
Bm7 |x24232|
D   |xx0232|
Asus4|x02230|

          Bm7         AM7
I’ve been trying like hell
   Bm7         D
To wake myself up
    Bm               A  Asus4
But dreams fall hard today



Verse 3:
1:20
In a vision of death
You breathe your last breath
And all that I hold is cold embers

And I sing in your ear
But there’s nothing to hear
Just a nightowl in burial chambers 



Verse 4:
1:45
You say that you love me
And I write it all down
So when you’re gone I’ll remember

But as I get old I find
I can’t trust my own mind
And your words all break down into laughter 



Pre-Chorus:
2:09


Chorus:
2:21


Bridge:
G   |320033|
E7  |020100|
2:40
  G                           F#m 
I watch myself falling apart
                                    E
My body can’t keep up with my heart

What I see I can’t understand
     E7
Your sweet boy’s becoming a nervous old man 


Verse 5:
I wake up with tears
Not yet dried on my face
No comfort in the cold light of morning

Young men see visions
And old men dream dreams
And it all amounts to a warning 


Chorus:
3:29 -4:35


Outro:


  4:36

e|-0-----------------------------------------------|
B|-2-----------5-----------9-----------7-----------|
G|-2-----------6-----------9-----------7-----------|
D|-2-----------6-----------9-----------7-----------|
A|-0-----------0-----------0-----------0-----------|
E|-------------------------------------------------|
   *   *   *   *   *   *   *   *   *   *   *   *        


   
e|-------------------------------------------------|
B|-7-----------5-----------3-----------------------|
G|-7-----------6-----------4-----------------------|
D|-7-----------6-----------4-----------------------|
A|-0-----------0-----------0-----------------------|
E|-------------------------------------------------|
   *   *   *   *   *   *   *   *   *   *   *   *  

            
            
Suggest correction
Creating personal tab
Creating personal tab
You can edit any tab online and save it as your Personal.

You can edit, replace or remove any tab part or add personal notes – all changes will be seen only by you.

Personal tabs can be accessed anytime from any device, even offline.
Learn more »
Give kudos to tab author, rate the tab!
1 2 3 4 5
comments
print report bad tab
1 comment total.
+1 reply
alexxbrisson 10 Apr 12, 2017 04:42 PM

the pre-chorus doesn't seem quite right

guest
You may want to rate the tab now too:
select rating
Wanna post a correction for this tab? Suggest correction