Oops, an error
Loading. Please wait.

Fill In The Blank tab

3,124 views 51 this week
no commentswrite comment
1 2 3 4 5
x 5
add to favorites
×
Save as Personal and add changes to this tab that will be seen only by you. Learn more ›
×
You can save this tab as Personal to edit and correct it or add notes. All changes will be seen only by you. Learn more »
launch autoscroll
font size
0
reset
how to read this tab
guitar tuner
edit
Autoscroll
slow
fast
+/-
esc
set tempo
stop
Author
Difficulty
[Intro]
e|0-0-0-0-0---2-0------------------------------------------------------------| x4
B|----------2-----3-3-3-3-3-3-3-3--------------------------------------------|
G|---------------------------------------------------------------------------|
D|---------------------------------------------------------------------------|
A|---------------------------------------------------------------------------|
E|---------------------------------------------------------------------------|

[Verse]
e|0-0-0-0-0--2-0-------------------------------------------------------------|x3
B|----------2----3-3-3-3-3-3-3-3---------------------------------------------|
G|---------------------------------------------------------------------------|
D|---------------------------------------------------------------------------|
A|---------------------------------------------------------------------------|
E|---------------------------------------------------------------------------|
  I'm so sick of _________(Fill in the blank) accomplish more accomplish nothing
If I were split in two I would just take my fists

e|0-0-0-0---2-0--------------------------------------------------------------|
B|--------2------------------------------------------------------------------|
G|-----------------7-7-7-7--7------------------------------------------------|
D|-----------------7-7-7-7--7------------------------------------------------|
A|-----------------5-5-5-5--5------------------------------------------------|
E|---------------------------------------------------------------------------|
So I can Beat up the rest of me

[Chorus]
e|---------------------------------------------------------------------------|
B|---------------------------------------------------------------------------|
G|--------------9-9-9-6h7p6--4---7-7-7-7-7-7-7-7-7------------------9-9-9-6h7|
D|7------------------------------7-7-7-7-7-7-7-7-7-------7-------------------|
A|7------------------------------5-5-5-5-5-5-5-5-5-------7-------------------|
E|5------------------------------------------------------5-------------------|

e|---------------------------------------------------------------------------|
B|---------------------------------------------------------------------------|
G|---7-7-7-7-7-7-7-7-7---------------9999-11-11-9-9----7-7-7-7-7-7-7-7-7-----|
D|---7-7-7-7-7-7-7-7-7--------7------------------------7-7-7-7-7-7-7-7-7----7|
A|---5-5-5-5-5-5-5-5-5--------7------------------------5-5-5-5-5-5-5-5-5----7|
E|----------------------------5---------------------------------------------5|

e|---------------------------------------------------------------------------|
B|---------------------------------------------------------------------------|
G|---7-7-7-7-7-7----6-6-6-6-6-6----------------------------------------------|
D|---7-7-7-7-7-7----6-6-6-6-6-6----2-2-2-2-2----4-4-4-4-4-4-4-4-4-4-4-4-4----|
A|---5-5-5-5-5-5----4-4-4-4-4-4----2-2-2-2-2----4-4-4-4-4-4-4-4-4-4-4-4-4----|
E|---------------------------------0-0-0-0-0----2-2-2-2-2-2-2-2-2-2-2-2-2----|
 You have no right to be depressed you haven't tried hard enough to like it
Haven't seen enough of this world yet but it hurts it hurts it hurts it hurts
Stop your whining try again no one wants to cause you pain
Their just tryin to let some air in but you hold your breath you hold your Breath you hold it
hold my breath I hold my breath I hold it

[Interlude]
e|0-0-0-0-0---2-0------------------------------------------------------------|x2
B|----------2-----3-3-3-3-3-3--3--3-2-0--------------------------------------|
G|---------------------------------------------------------------------------|
D|---------------------------------------------------------------------------|
A|---------------------------------------------------------------------------|
E|---------------------------------------------------------------------------|

[Verse]
e|0-0-0-0-0---2-0------------------------------------------------------------|
B|----------2-----3-3-3-3-3-3-3-3-3-3--3--3-2-0---555555555-2-7-5-3-333333333|
G|---------------------------------------------------------------------------|
D|---------------------------------------------------------------------------|
A|---------------------------------------------------------------------------|
E|---------------------------------------------------------------------------|

e|0-0-0-0-0---2-0----------------------------0-0-0-0-0---2-0-----------------|
B|----------2-----3-3-3-3-3-3-3-3-3--3---320-----------2---------------------|
G|-----------------------------------------------------------7-7-7-7---7-----|
D|-----------------------------------------------------------7-7-7-7---7-----|
A|-----------------------------------------------------------5-5-5-5---5-----|
E|---------------------------------------------------------------------------|
 I've known for a long time i'm not getting what I want out of people
it took me a long time to figure out I don't know what I want
So you'll ask why and there will be no answer and you ask for how long and there will be no answer
and you ask what can I do and there will be know answer and eventually you will just     shut  up

[Chorus]
e|---------------------------------------------------------------------------|
B|---------------------------------------------------------------------------|
G|-----9-9-9-6h7-6--4---7-7-7-7-7-7-7-7-7------------9b--7----7-7-7-7-7-7----|
D|7---------------------7-7-7-7-7-7-7-7-7-------7-------------7-7-7-7-7-7----|
A|7---------------------5-5-5-5-5-5-5-5-5-------7-------------5-5-5-5-5-5----|
E|5---------------------------------------------5----------------------------|

e|---------------------------------------------------------------------------|
B|------------------------------9-----9--------------------------------------|
G|---7-7-7-7-7-7-7-7-7-------7-----7---------------7-7-7-7-7-7-7-7-7---------|
D|---7-7-7-7-7-7-7-7-7----7------------------------7-7-7-7-7-7-7-7-7----7----|
A|---5-5-5-5-5-5-5-5-5----7------------------------5-5-5-5-5-5-5-5-5----7----|
E|------------------------5---------------------------------------------5----|

e|---------------------------------------------------------------------------|
B|---------------------------------------------------------------------------|
G|---7-7-7-7-7-7----6-6-6-6-6-6----------------------------------------------|
D|---7-7-7-7-7-7----6-6-6-6-6-6----2-2-2-2-2----4-4-4-4-4-4-4-4-4-4-4-4-4----|
A|---5-5-5-5-5-5----4-4-4-4-4-4----2-2-2-2-2----4-4-4-4-4-4-4-4-4-4-4-4-4----|
E|---------------------------------0-0-0-0-0----2-2-2-2-2-2-2-2-2-2-2-2-2----|
 You have no right to be depressed you haven't tried hard enough to like it
Haven't seen enough of this world yet but it hurts it hurts it hurts it hurts
Stop your whining try again no one wants to cause you pain
Their just tryin to let some air in but you hold your breath you hold your Breath you hold it
hold my breath I hold my breath I hold it

[Bridge]
e|---------------------------------------------------------------------------|x2
B|---------------------------------------------------------------------------|
G|---------------------------------------------------------------------------|
D|-9-9-9-9-9-9-9-9-----11-11-11-11-11-----12-12-12-12-12-----7-7-7-7-7-7-7-7-|
A|-9-9-9-9-9-9-9-9-----11-11-11-11-11-----12-12-12-12-12-----7-7-7-7-7-7-7-7-|
E|-7-7-7-7-7-7-7-7-----9--9--9--9--9------10-10-10-10-10-----5-5-5-5-5-5-5-5-|

e|---------------------------------------------------------------------------|
B|---------------------------------------------------------------------------|
G|---------------------------------------------------------------------------|
D|-9-9-9-9-9-9-9-9-9-9-----------12-12-12-12-12-12-12-12-12-12-12-12-12-12-12|
A|-9-9-9-9-9-9-9-9-9-9-----------12-12-12-12-12-12-12-12-12-12-12-12-12-12-12|
E|-7-7-7-7-7-7-7-7-7-7-----------10-10-10-10-10-10-10-10-10-10-10-10-10-10-10|
 I get signs from the cops saying stay the fuck down
I get signs from the audience saying stay the fuck down
I get signs from god saying stay the fuck down

[Solo]
e|---------------------------------------------------------------------------|x3
B|-17-0-17-0-17-0-17-0-17-0-17-0-14-0-19-0-17-0-15-0-15-0-15-0-15--15-14-12--|
G|---------------------------------------------------------------------------|
D|---------------------------------------------------------------------------|
A|---------------------------------------------------------------------------|
E|---------------------------------------------------------------------------|

e|---------------------------------------------------------------------------|
B|-17-0-17-0-17-0-17-0-17-0-17-0-14-0-19-0-17-0-15---------------------------|
G|---------------------------------------------------------------------------|
D|---------------------------------------------------------------------------|
A|---------------------------------------------------------------------------|
E|---------------------------------------------------------------------------|

[Outro]
e|---------------------------------------------------------------------------|
B|---------------------------------------------------------------------------|
G|--------------------7-7-7-7-7-7-7-7-------------------------7---9-11-9-11-9|
D|-7-7-7-7-7-7-7------7-7-7-7-7-7-7-7-----7-7-7-7-7-7-7-7-7---7--------------|
A|-7-7-7-7-7-7-7------5-5-5-5-5-5-5-5-----7-7-7-7-7-7-7-7-7---5--------------|
E|-5-5-5-5-5-5-5--------------------------5-5-5-5-5-5-5-5-5------------------|
 I've got a right to be depressed I've given every inch I had to fight it
I have seen to much of this world yes but it hurts it hurts it hurts
e|---------------------------------------------------------------------------|
B|---------------------------------------------------------------------------|
G|----------------------------7-7-7-7-7-7-7-7-7-7----------------------------|
D|-7-7-7-7-7-7-7-7-7-7-7------7-7-7-7-7-7-7-7-7-7-----7-7-7-7-7-7-7-7-7-7-7-7|
A|-7-7-7-7-7-7-7-7-7-7-7------5-5-5-5-5-5-5-5-5-5-----7-7-7-7-7-7-7-7-7-7-7-7|
E|-5-5-5-5-5-5-5-5-5-5-5------------------------------5-5-5-5-5-5-5-5-5-5-5-5|
 And I will never see the light that I've seen shining in your eyes you just
want to see me naked so I'll
e|---------------------------------------------------------------------------|
B|---------------------------------------------------------------------------|
G|---7-7-7-7-7----6-6-6-6-6--------------------------------------------------|
D|---7-7-7-7-7----6-6-6-6-6----2-2-2-2----4-4-4-4-4-4-4-4-4-4-4-4-4--------7-|
A|---5-5-5-5-5----4-4-4-4-4----2-2-2-2----4-4-4-4-4-4-4-4-4-4-4-4-4--------7-|
E|-----------------------------0-0-0-0----2-2-2-2-2-2-2-2-2-2-2-2-2---0--2/5-|
Hold my breath I hold hold my breath I hold it
Hold my breath I hold my breath I hold my breath I hold my breath I hold my breath
I hold my breath I hold my breath
 
************************************

| h  Hammer-on
| p  Pull-off
| b  Bend
| /  Slide up 

************************************

            
            
Suggest correction
Creating personal tab
Creating personal tab
You can edit any tab online and save it as your Personal.

You can edit, replace or remove any tab part or add personal notes – all changes will be seen only by you.

Personal tabs can be accessed anytime from any device, even offline.
Learn more »
comments
print report bad tab
guest
You may want to rate the tab now too:
select rating
Wanna post a correction for this tab? Suggest correction