Oops, an error
Loading. Please wait.

Nervous Young Inhumans tab

1,084 views 15 this week
no commentswrite comment
1 2 3 4 5
x 3
add to favorites
×
Save as Personal and add changes to this tab that will be seen only by you. Learn more ›
×
You can save this tab as Personal to edit and correct it or add notes. All changes will be seen only by you. Learn more »
launch autoscroll
font size
0
reset
how to read this tab
guitar tuner
edit
Autoscroll
slow
fast
+/-
esc
set tempo
stop
Riff:
e|----------------------14--16--17--16--12--
B|---7---9--10--12--14----------------------
G|------------------------------------------
D|------------------------------------------
A|------------------------------------------
E|------------------------------------------

e|------------------14--14--14--14--14--14--
B|---7---9--10--12--------------------------
G|------------------------------------------
D|------------------------------------------
A|------------------------------------------
E|------------------------------------------

[Intro]

D F#m A

Riff


[Verse]

A                       E            Bm
  You should've seen my cursive back then

D     A      D   A         E     <----- I play this E with the standard chord and then move it up to a
Every letter was above the line         barre on the 7th fret of the A string

A             E             Bm
  My Ps and Qs raised their stems

   D       A       D       A
So nothing crossed beneath

E
I'm a little better now


[Chorus]

D           F#m      E
  You galvanistic young boy

Bm          F#m      E
  You galvanistic young man

F#m         E        A
  You galvanistic young inhuman

D          E
  You understand


[Post Chorus]

Riff

Art gets what it wants and art gets what it deserves


[Verse]

A                           E         Bm
  Most people are jokes but you're so real

D           A           D            A
Most of the time that I use the word "you"

E
Well you know that I'm mostly singing about you

A                       E
  You swore you'd never use

    Bm             D  A 
The face that your ex invented

   D          A
So let's meet up in

        E
Uncanny valley


[Chorus]

D           F#m      E
  You galvanistic young boy

Bm          F#m      E
  You galvanistic young man

F#m         E        A
  You galvanistic young inhuman

D          E
  You understand


[Post Chorus]

Riff

You'll get what you want and you'll get what you deserve





Bonus Bass Tab for Monologue:
G|--------------------------------
D|-------------------4-----4-2----
A|---5---4-5-0---------4-------2--
D|-------------0------------------

G|--------------------------------
D|--------------------------------
A|---5---4-5-0-----------0-2-4-5--
D|-------------0-----4------------

G|--------------------------------
D|--------------------------------
A|---2-4-5-7---4-5-7-9---7---5----
D|--------------------------------

            
            
Suggest correction
Creating personal tab
Creating personal tab
You can edit any tab online and save it as your Personal.

You can edit, replace or remove any tab part or add personal notes – all changes will be seen only by you.

Personal tabs can be accessed anytime from any device, even offline.
Learn more »
Give kudos to tab author, rate the tab!
1 2 3 4 5
comments
print report bad tab
guest
You may want to rate the tab now too:
select rating
Wanna post a correction for this tab? Suggest correction