Oops, an error
Loading. Please wait.

No Passion Bass Tab

79 views 9 this week
no commentswrite comment
1 2 3 4 5
2 more votes to show rating
add to favorites
launch autoscroll
font size
0
reset
guitar tuner
Autoscroll
slow
fast
+/-
esc
set tempo
stop
Help us to improve Ultimate-Guitar.com Take our survey!
×
Author
[Chorus]
G|--------------------------------------------------------|
D|--------------------------------------------------------|
A|2-2-2-2-2-2-2-2-5-5-5-5-5-5-5-5-------------------------|
E|--------------------------------5~--5-5~--5-5~--5-5~--5-|

[Verse]
G|----------------------------------------------------------------|
D|----------------------------------------------------------------|
A|----------------4-4-4-4-4-2---2---------------------------------|
E|5-5-5-5-5-5-5-5-------------5---2-2-2-2-2-2-2-2-0-0-0-0-0-2-5-2-|


************************************

| ~  Vibrato 

************************************
Suggest correction
Give kudos to tab author, rate the tab!
1 2 3 4 5
comments
print report bad tab
guest
You may want to rate the tab now too:
select rating
Wanna post a correction for this tab? Suggest correction