Oops, an error
Loading. Please wait.

Sober To Death Chords

259 views 72 this week
1 commentread comment
1 2 3 4 5
2 more votes to show rating
add to favorites
launch autoscroll
font size
0
reset
transpose
0
reset
simplify chords
display chords
guitar tuner
Autoscroll
slow
fast
+/-
esc
set tempo
stop
Help us to improve Ultimate-Guitar.com Take our survey!
×
Author
Difficulty
intermediate
About this tab version
There weren't accurate chords/tabs on here for this version, so I made them. Was this info helpful? Yes No
This is the version performed at their Tiny Desk Concert, link --> https://youtu.be/RZZHTVr-r-g

Chord Diagrams:
    G*  G   Em  Em7 C/G C/G* ???  ???* Bm   C   D   Am   
e|--3---3---0---0---0---0----0----O----2----0---2---0---|
B|--0---0---0---0---1---1----0----0----3----1---3---1---|
G|--0---0---0---0---0---0----0----0----4----0---2---2---|
D|--2---2---2---0---2---0----2----0----4----2---0---2---|
A|--0---0---2---2---3---3----2----2----2----3---x---0---|
E|--3---3---0---0---3---3----2----2----2----x---x---x---|



[INTRO]
  G*             G                        G*                G
e|-------------------------------------------------------------------------------|
B|-------------------------------------------------------------------------------|
G|-------------------------------------------------------------------------------|
D|---------2---------0--------0--------------------2--------0--------0-----------|
A|---0--------0---------2--------2-----2-----0--------0--------2--------2-----2--|
E|3-----3--------3---------3--------3-----3-----3--------3--------3--------3-----|

  Em                Em7                  C/G                C/G*
e|-------------------------------------------------------------------------------|
B|-------------------------------------------------------------------------------|
G|-------------------------------------------------------------------------------|
D|---------2--------0--------0--------------------2---------0--------0-----------|
A|---2--------2--------2--------2-----2-----3--------3---------3--------3-----0--|
E|0-----0--------0--------0--------0-----3-----3--------3---------3--------3-----|


[VERSE]
  G*             G                        G*                G
e|-------------------------------------------------------------------------------|
B|-------------------------------------------------------------------------------|
G|-------------------------------------------------------------------------------|
D|---------2---------0--------0--------------------2--------0--------0-----------|
A|---0--------0---------2--------2-----2-----0--------0--------2--------2-----2--|
E|3-----3--------3---------3--------3-----3-----3--------3--------3--------3-----|
           Lovely    lovely,                     in your jeans, frenzy         

  Em                Em7                  C/G                C/G*
e|-------------------------------------------------------------------------------|
B|-------------------------------------------------------------------------------|
G|-------------------------------------------------------------------------------|
D|---------2--------0--------0--------------------2---------0--------0-----------|
A|---2--------2--------2--------2-----2-----3--------3---------3--------3-----0--|
E|0-----0--------0--------0--------0-----3-----3--------3---------3--------3-----|    
  another movie that I didn’t watch with you, another movie and I’m gonna have to move 

  G*             G                        Em                Em7
e|-------------------------------------------------------------------------------|
B|-------------------------------------------------------------------------------|
G|-------------------------------------------------------------------------------|
D|---------2---------0--------0--------------------2--------0--------0-----------|
A|---0--------0---------2--------2-----2-----2--------2--------2--------2-----2--|
E|3-----3--------3---------3--------3-----0-----0--------0--------0--------0-----|
  The final terror is in your house somewhere, hiding in boxes behind closed doorways
 
 C/G                C/G*                  ???                ???*
e|-------------------------------------------------------------------------------|
B|-------------------------------------------------------------------------------|
G|-------------------------------------------------------------------------------|
D|---------2--------0--------0--------------------2---------0--------0-----------|
A|---3--------3--------2--------2-----0-----2--------2---------2--------2-----0--|
E|3-----3--------3--------3--------3-----2-----2--------2---------2--------2-----| 
  Out from the forest adjacent to your g'rage. I’ve seen its marks at the corners of your eyes



C/G G            Em          
    Nothing works for everyone 
Em7 Em               C/G
    Good stories are bad lives
C/G*                 Bm
    Good stories are bad lives

[CHORUS]        
                                  G       D                             G                    Em
Take your hands off your neck and hold on to the ghost of my body, you know that good lives make bad stories
Bm      C        N.C.                          G                       D              G
You can text me, When punching mattresses gets old. Don't think it'll always be this way,
                 Em              Bm      C        Am      Em
Not comforted by anything I say, we were wrecks before we crashed into each other.


[VERSE]
  G*             G                        G*                G
e|-------------------------------------------------------------------------------|
B|-------------------------------------------------------------------------------|
G|-------------------------------------------------------------------------------|
D|---------2---------0--------0--------------------2--------0--------0-----------|
A|---0--------0---------2--------2-----2-----0--------0--------2--------2-----2--|
E|3-----3--------3---------3--------3-----3-----3--------3--------3--------3-----|
              Such a good idea,                      if it turns you on         

  Em                Em7                  C/G                C/G*
e|-------------------------------------------------------------------------------|
B|-------------------------------------------------------------------------------|
G|-------------------------------------------------------------------------------|
D|---------2--------0--------0--------------------2---------0--------0-----------|
A|---2--------2--------2--------2-----2-----3--------3---------3--------3-----0--|
E|0-----0--------0--------0--------0-----3-----3--------3---------3--------3-----|    
             We have breakdowns         and     sometimes we don’t have breakdowns 

  G*             G                        Em                Em7
e|-------------------------------------------------------------------------------|
B|-------------------------------------------------------------------------------|
G|-------------------------------------------------------------------------------|
D|---------2---------0--------0--------------------2--------0--------0-----------|
A|---0--------0---------2--------2-----2-----2--------2--------2--------2-----2--|
E|3-----3--------3---------3--------3-----0-----0--------0--------0--------0-----|
       I want to hear you going psycho         if you’re going psycho I wanna hear
 
 C/G                C/G*
e|----------------------------------------|
B|----------------------------------------|
G|----------------------------------------|
D|---------2--------0--------0------------|
A|---3--------3--------2--------2-----0---|
E|3-----3--------3--------3--------3------| 
       Every conversation just ends with you screaming
C/G                                G       G*
Not even words, just ahh-ahh-ahhhhhhhhhhhhhhhhhhhhhh 

[BREAK] (The strumming rhythm is the same as the picking.)
G* G G* G Em Em7 C/G C/G*

[CHORUS]
                                G       D                            G                    Em
Take my hands off your neck and hold on to the ghost of your body, I know that good lives make bad stories
Bm      C        N.C.                          G                   D              G
You can text me, When punching mattresses gets old. What if it'll always be this way,
                 Em                Bm      C         N.C.
Not comforted by anything you say, we were wrecks before we crashed into each other.

[BREAK]
G D G Em Bm C Am Em
 
[BRIDGE]
     C                G    (strum)   Em                D (strum)
e|-----------0--------3-----3-3-3-3-----------0--------2--2--2--2--------------|
B|--------------1--------0--0-0-0-0--------------0-----3--3--3--3--------------|
G|--------0--------0--------0-0-0-0--------0--------0--2--2--2--2--------------|
D|-----2--------------------0-0-0-0-----2--------------0--0--0--0--------------|
A|--3-----------------------2-2-2-2--2-----------------x--x--x--x--------------|
E|--------------------------3-3-3-3--------------------x--x--x--x--------------|
               Don't worry,          you and me won't be alone no more.

    Am                 G (strum)    D                   Am (strum)
e|-----------0--------3--3--3--3-------------2--------0--0--0--0--------------|
B|--------------1-----0--0--0--0----------3-----3-----1--1--1--1--------------|
G|--------2--------0--0--0--0--0-------2-----------2--2--2--2--2--------------|
D|-----2--------------0--0--0--0---0------------------2--2--2--2--------------|
A|--0-----------------2--2--2--2----------------------0--0--0--0--------------|
E|--------------------3--3--3--3----------------------x--x--x--x--------------|
         Don't worry,            you and me won't be alone no more.

     C                G    (strum)   Em                D (strum)
e|-----------0--------3-----3-3-3-3-----------0--------2--2--2--2--------------|
B|--------------1--------0--0-0-0-0--------------0-----3--3--3--3--------------|
G|--------0--------0--------0-0-0-0--------0--------0--2--2--2--2--------------|
D|-----2--------------------0-0-0-0-----2--------------0--0--0--0--------------|
A|--3-----------------------2-2-2-2--2-----------------x--x--x--x--------------|
E|--------------------------3-3-3-3--------------------x--x--x--x--------------|
               Don't worry,          you and me won't be alone no more.

    Am                 G (strum)    D                   Am (strum)
e|-----------0--------3--3--3--3-------------2--------0--0--0--0--------------|
B|--------------1-----0--0--0--0----------3-----3-----1--1--1--1--------------|
G|--------2--------0--0--0--0--0-------2-----------2--2--2--2--2--------------|
D|-----2--------------0--0--0--0---0------------------2--2--2--2--------------|
A|--0-----------------2--2--2--2----------------------0--0--0--0--------------|
E|--------------------3--3--3--3----------------------x--x--x--x--------------|
         Don't worry,            you and me won't be alone no more.

[OUTRO] x6
C     G
Don't worry
Em              D            Am
You and me won't be alone no more
     G
Don't worry
D                Am
You and me won't be alone no more
Suggest correction
Give kudos to tab author, rate the tab!
1 2 3 4 5
comments
print report bad tab
1 comment total.
+1 reply
pdrinovac2 129 Nov 20, 2016 07:56 PM

The unknown chord(s) can be called Em/F# (Em7/F#). Otherwise great tab.

guest
You may want to rate the tab now too:
select rating
Wanna post a correction for this tab? Suggest correction